PrimaNota.ru - самый крупный в мире бесплатный архив песенных текстов, аккордов, табулатур и нот


Death From Above 1979 - Too Much Love - текст песни, бас-таба, видео

Регистрация Запомнить меня
Войти через:  Facebook Google Twitter Vk Yandex Mail.ru

Death From Above 1979 - Too Much Love - текст песни, бас-таба, видео

Печатать
Просмотров: 232
DEATH FROM ABOVE 1979 - TOO MUCH LOVE
        (Tabbed by w7w7w7)



Verse                                     -
G|-------------------------------------|   |
D|-------------------------------------|   |
A|----------7/3333333-5555555555555555-|   |
E|-33333333----------------------------|   |
                                           > x2
G|-------------------------------------|   |
D|--------------------5----------------|   |
A|----------7/3333333--555555555555555-|   |
E|-33333333----------------------------|   |
                                          -


Chorus
G|-------------------------------------|
D|-333333-5---------3------------------|
A|-----------333333----555555555555555-| x2
E|-------------------------------------|

G|-------------------------------------|
D|-777777-5---------3------------------|
A|-----------333333----555555555555555-| x2
E|-------------------------------------|


Verse
Chorus


Bridge
G|-------------------------------------|
D|-33XXXXXX----------------------------|
A|----------33XXXXXX-55XXXXXXXXXXXXXX--| x4
E|-------------------------------------|



Outro
G|-------------------------------------|
D|-777777-5---------3------------------|
A|-----------333333----555555555555555-| x2
E|-------------------------------------|

G|-777777------------------------------|
D|--------5---------3------------------|
A|-----------333333----555555555555555-| x2
E|-------------------------------------|
Добавлено: 30.01.2014
Другие материалы по этой песне:
  • Аккорды и текст

Страница создана 01.06.2012
http://primanota.ru/death-from-above-1979/too-much-love-chords.htm
Привет, Гость.
Предлагаем пройти революционный курс по гитаре.
Подарок от PrimaNota.Ru, забирай!