PrimaNota.ru - самый крупный в мире бесплатный архив песенных текстов, аккордов, табулатур и нот


Death From Above 1979 - Romantic Rights - текст песни, таба, бас-таба, видео

Регистрация Запомнить меня
Войти через:  Facebook Google Twitter Vk Yandex Mail.ru

Death From Above 1979 - Romantic Rights - текст песни, таба, бас-таба, видео

Печатать
Просмотров: 150
Romantic Rights
Death From Above 1979
You're a Woman, I'm a Machine
Tuning: Standard
Effects: Use of synth, mild distortions, heavy bass, and low flange
*  scratch
/  slide up

Romantics rights is really just a bass and a drummer.  theres no guitars but
for all you guitar players out there I have tried hard to make a guitar part
for this song so hopefully it helps.

Intro(really for bass but I modified if for guitar)
E|--------------------------------------------------------------------------|
B|--------------------------------------------------------------------------|
G|--------------------------------------------------------------------------|
D|-2--------------2-------------2-*-*-*-*-*-*-2-*-*-*-*-*-*-----------------|
A|-2-*-*-*-*-*-*--2-*-*-*-*-*---2-------------2-----------------------------|
E|-0--------------0-------------0-------------0-----------------------------|

E|--------------------------------------------------------------------------|
B|--------------------------------------------------------------------------|
G|--------------------------------------------------------------------------|
D|-2--------------2-------------2-*-*-*-*-*-*-2-*-*-*-*-*-*-----------------|
A|-2-*-*-*-*-*-*--2-*-*-*-*-*---2-------------2-----------------------------|
E|-0--------------0-------------0-------------0-----------------------------|

E|--------------------------------------------------------------------------|
B|--------------------------------------------------------------------------|
G|--------------------------------------------------------------------------|
D|-2--------------2-------------2-*-*-*-*-*-*-2-*-*-*-*-*-*-----------------|
A|-2-*-*-*-*-*-*--2-*-*-*-*-*---2-------------2-----------------------------|
E|-0--------------0-------------0-------------0-----------------------------|

E|--------------------------------------------------------------------------|
B|--------------------------------------------------------------------------|
G|---*-*-*-*-*----*-*-*-*-*-------------------------------------------------|
D|-2------------2-----------2-*-*-*-*-*--2-*-*-2----------------------------|
A|-2------------2-----------2------------2-----2----------------------------|
E|-0------------0-----------0------------0-----0----------------------------|


Main
E|--------------------------------------------------------------------------|
B|-----------3-1----------------------3-1-----------------------------------|
G|-----------3-1-3-2---1--------------3-1--3-2---1--------------------------|
D|--3-3-1-3--5-3-3-2-2-1-----3-3-1-3--5-3--3-2-2-1--------------------------|
A|--3-3-1-3------5-0-2-3-----3-3-1-3-------5-0-2-3--------------------------|
E|--5-5-3-5----------0-------5-5-3-5-----------0----------------------------|

E|-----------------------------------------------3--------------------------|
B|----------3-1-----------------------3-1--------3--------------------------|
G|----------3-1-1-2---1---------------3-1--3-2---5--------------------------|
D|--3-3-1-3-5-3-3-2-2-1------3-3-1-3--5-3--3-2-2----------------------------|
A|--3-3-1-3-----5-0-2-3------3-3-1-3-------5-0-2----------------------------|
E|--5-5-3-5---------0--------5-5-3-5-----------0----------------------------|

E|--------------------------------------------------------------------------|
B|-----------3-1----------------------3-1-----------------------------------|
G|-----------3-1-3-2---1--------------3-1--3-2---1--------------------------|
D|--3-3-1-3--5-3-3-2-2-1-----3-3-1-3--5-3--3-2-2-1--------------------------|
A|--3-3-1-3------5-0-2-3-----3-3-1-3-------5-0-2-3--------------------------|
E|--5-5-3-5----------0-------5-5-3-5-----------0----------------------------|

E|-----------------------------------------------3--------------------------|
B|----------3-1-----------------------3-1--------3--------------------------|
G|----------3-1-1-2---1---------------3-1--3-2---5--------------------------|
D|--3-3-1-3-5-3-3-2-2-1------3-3-1-3--5-3--3-2-2----------------------------|
A|--3-3-1-3-----5-0-2-3------3-3-1-3-------5-0-2----------------------------|
E|--5-5-3-5---------0--------5-5-3-5-----------0----------------------------|

E|--------------------------------------------------------------------------|
B|-----------3-1----------------------3-1-----------------------------------|
G|-----------3-1-3-2---1--------------3-1--3-2---1--------------------------|
D|--3-3-1-3--5-3-3-2-2-1-----3-3-1-3--5-3--3-2-2-1--------------------------|
A|--3-3-1-3------5-0-2-3-----3-3-1-3-------5-0-2-3--------------------------|
E|--5-5-3-5----------0-------5-5-3-5-----------0----------------------------|

E|-----------------------------------------------3--------------------------|
B|----------3-1-----------------------3-1--------3--------------------------|
G|----------3-1-1-2---1---------------3-1--3-2---5--------------------------|
D|--3-3-1-3-5-3-3-2-2-1------3-3-1-3--5-3--3-2-2----------------------------|
A|--3-3-1-3-----5-0-2-3------3-3-1-3-------5-0-2----------------------------|
E|--5-5-3-5---------0--------5-5-3-5-----------0----------------------------|

Bridge (First Time)
E|--------------------------------------------------------------------------|
B|-------------------------------1---1--------------------------------------|
G|--1-1-1-1-1-2-1-2----1-1-1-1-1-1---1--------------------------------------|
D|--1-1-1-1-1-2-1-2----1-1-1-1-1-3-2-3--------------------------------------|
A|--3-3-3-3-3-0-3-0----3-3-3-3-3---2----------------------------------------|
E|---------------------------------0----------------------------------------|

E|--------------------------------------------------------------------------|
B|-------------------------------1---1--------------------------------------|
G|--1-1-1-1-1-2-1-2----1-1-1-1-1-1---1--------------------------------------|
D|--1-1-1-1-1-2-1-2----1-1-1-1-1-3-2-3--------------------------------------|
A|--3-3-3-3-3-0-3-0----3-3-3-3-3---2----------------------------------------|
E|---------------------------------0----------------------------------------|

E|--------------------------------------------------------------------------|
B|-------------------------------1---1--------------------------------------|
G|--1-1-1-1-1-2-1-2----1-1-1-1-1-1---1--------------------------------------|
D|--1-1-1-1-1-2-1-2----1-1-1-1-1-3-2-3--------------------------------------|
A|--3-3-3-3-3-0-3-0----3-3-3-3-3---2----------------------------------------|
E|---------------------------------0----------------------------------------|

E|--------------------------------------------------------------------------|
B|-------------------------------1---1--------------------------------------|
G|--1-1-1-1-1-2-1-2----1-1-1-1-1-1---1--------------------------------------|
D|--1-1-1-1-1-2-1-2----1-1-1-1-1-3-2-3--------------------------------------|
A|--3-3-3-3-3-0-3-0----3-3-3-3-3---2----------------------------------------|
E|---------------------------------0----------------------------------------|

Main
E|--------------------------------------------------------------------------|
B|-----------3-1----------------------3-1-----------------------------------|
G|-----------3-1-3-2---1--------------3-1--3-2---1--------------------------|
D|--3-3-1-3--5-3-3-2-2-1-----3-3-1-3--5-3--3-2-2-1--------------------------|
A|--3-3-1-3------5-0-2-3-----3-3-1-3-------5-0-2-3--------------------------|
E|--5-5-3-5----------0-------5-5-3-5-----------0----------------------------|

E|-----------------------------------------------3--------------------------|
B|----------3-1-----------------------3-1--------3--------------------------|
G|----------3-1-1-2---1---------------3-1--3-2---5--------------------------|
D|--3-3-1-3-5-3-3-2-2-1------3-3-1-3--5-3--3-2-2----------------------------|
A|--3-3-1-3-----5-0-2-3------3-3-1-3-------5-0-2----------------------------|
E|--5-5-3-5---------0--------5-5-3-5-----------0----------------------------|

E|--------------------------------------------------------------------------|
B|-----------3-1----------------------3-1-----------------------------------|
G|-----------3-1-3-2---1--------------3-1--3-2---1--------------------------|
D|--3-3-1-3--5-3-3-2-2-1-----3-3-1-3--5-3--3-2-2-1--------------------------|
A|--3-3-1-3------5-0-2-3-----3-3-1-3-------5-0-2-3--------------------------|
E|--5-5-3-5----------0-------5-5-3-5-----------0----------------------------|

E|-----------------------------------------------3--------------------------|
B|----------3-1-----------------------3-1--------3--------------------------|
G|----------3-1-1-2---1---------------3-1--3-2---5--------------------------|
D|--3-3-1-3-5-3-3-2-2-1------3-3-1-3--5-3--3-2-2----------------------------|
A|--3-3-1-3-----5-0-2-3------3-3-1-3-------5-0-2----------------------------|
E|--5-5-3-5---------0--------5-5-3-5-----------0----------------------------|

E|--------------------------------------------------------------------------|
B|-----------3-1----------------------3-1-----------------------------------|
G|-----------3-1-3-2---1--------------3-1--3-2---1--------------------------|
D|--3-3-1-3--5-3-3-2-2-1-----3-3-1-3--5-3--3-2-2-1--------------------------|
A|--3-3-1-3------5-0-2-3-----3-3-1-3-------5-0-2-3--------------------------|
E|--5-5-3-5----------0-------5-5-3-5-----------0----------------------------|

E|-----------------------------------------------3--------------------------|
B|----------3-1-----------------------3-1--------3--------------------------|
G|----------3-1-1-2---1---------------3-1--3-2---5--------------------------|
D|--3-3-1-3-5-3-3-2-2-1------3-3-1-3--5-3--3-2-2----------------------------|
A|--3-3-1-3-----5-0-2-3------3-3-1-3-------5-0-2----------------------------|
E|--5-5-3-5---------0--------5-5-3-5-----------0----------------------------|

E|--------------------------------------------------------------------------|
B|-----------3-1----------------------3-1-----------------------------------|
G|-----------3-1-3-2---1--------------3-1--3-2---1--------------------------|
D|--3-3-1-3--5-3-3-2-2-1-----3-3-1-3--5-3--3-2-2-1--------------------------|
A|--3-3-1-3------5-0-2-3-----3-3-1-3-------5-0-2-3--------------------------|
E|--5-5-3-5----------0-------5-5-3-5-----------0----------------------------|

E|-----------------------------------------------3--------------------------|
B|----------3-1-----------------------3-1--------3--------------------------|
G|----------3-1-1-2---1---------------3-1--3-2---5--------------------------|
D|--3-3-1-3-5-3-3-2-2-1------3-3-1-3--5-3--3-2-2----------------------------|
A|--3-3-1-3-----5-0-2-3------3-3-1-3-------5-0-2----------------------------|
E|--5-5-3-5---------0--------5-5-3-5-----------0----------------------------|

E|--------------------------------------------------------------------------|
B|-----------3-1----------------------3-1-----------------------------------|
G|-----------3-1-3-2---1--------------3-1--3-2---1--------------------------|
D|--3-3-1-3--5-3-3-2-2-1-----3-3-1-3--5-3--3-2-2-1--------------------------|
A|--3-3-1-3------5-0-2-3-----3-3-1-3-------5-0-2-3--------------------------|
E|--5-5-3-5----------0-------5-5-3-5-----------0----------------------------|

E|-----------------------------------------------3--------------------------|
B|----------3-1-----------------------3-1--------3--------------------------|
G|----------3-1-1-2---1---------------3-1--3-2---5--------------------------|
D|--3-3-1-3-5-3-3-2-2-1------3-3-1-3--5-3--3-2-2----------------------------|
A|--3-3-1-3-----5-0-2-3------3-3-1-3-------5-0-2----------------------------|
E|--5-5-3-5---------0--------5-5-3-5-----------0----------------------------|

E|--------------------------------------------------------------------------|
B|-----------3-1----------------------3-1-----------------------------------|
G|-----------3-1-3-2---1--------------3-1--3-2---1--------------------------|
D|--3-3-1-3--5-3-3-2-2-1-----3-3-1-3--5-3--3-2-2-1--------------------------|
A|--3-3-1-3------5-0-2-3-----3-3-1-3-------5-0-2-3--------------------------|
E|--5-5-3-5----------0-------5-5-3-5-----------0----------------------------|

E|-----------------------------------------------3--------------------------|
B|----------3-1-----------------------3-1--------3--------------------------|
G|----------3-1-1-2---1---------------3-1--3-2---5--------------------------|
D|--3-3-1-3-5-3-3-2-2-1------3-3-1-3--5-3--3-2-2----------------------------|
A|--3-3-1-3-----5-0-2-3------3-3-1-3-------5-0-2----------------------------|
E|--5-5-3-5---------0--------5-5-3-5-----------0----------------------------|

E|--------------------------------------------------------------------------|
B|-------------------------------1---1--------------------------------------|
G|--1-1-1-1-1-2-1-2----1-1-1-1-1-1---1--------------------------------------|
D|--1-1-1-1-1-2-1-2----1-1-1-1-1-3-2-3--------------------------------------|
A|--3-3-3-3-3-0-3-0----3-3-3-3-3---2----------------------------------------|
E|---------------------------------0----------------------------------------|

E|--------------------------------------------------------------------------|
B|-------------------------------1---1--------------------------------------|
G|--1-1-1-1-1-2-1-2----1-1-1-1-1-1---1--------------------------------------|
D|--1-1-1-1-1-2-1-2----1-1-1-1-1-3-2-3--------------------------------------|
A|--3-3-3-3-3-0-3-0----3-3-3-3-3---2----------------------------------------|
E|---------------------------------0----------------------------------------|

E|--------------------------------------------------------------------------|
B|-------------------------------1---1--------------------------------------|
G|--1-1-1-1-1-2-1-2----1-1-1-1-1-1---1--------------------------------------|
D|--1-1-1-1-1-2-1-2----1-1-1-1-1-3-2-3--------------------------------------|
A|--3-3-3-3-3-0-3-0----3-3-3-3-3---2----------------------------------------|
E|---------------------------------0----------------------------------------|

E|--------------------------------------------------------------------------|
B|-------------------------------1---1--------------------------------------|
G|--1-1-1-1-1-2-1-2----1-1-1-1-1-1---1--------------------------------------|
D|--1-1-1-1-1-2-1-2----1-1-1-1-1-3-2-3--------------------------------------|
A|--3-3-3-3-3-0-3-0----3-3-3-3-3---2----------------------------------------|
E|---------------------------------0----------------------------------------|

Outro
E|--------------------------------------------------------------------------|
B|--------------------------------------------------------------------------|
G|--------------------------------------------------------------------------|
D|--------------------------------------------------------------------------|
A|--0-12--15-15-15--0-10/12----0-12--15-15-15--0-10/12----------------------|
E|--------------------------------------------------------------------------|

E|--------------------------------------------------------------------------|
B|--------------------------------------------------------------------------|
G|--------------------------------------------------------------------------|
D|--------------------------------------------------------------------------|
A|--0-12--15-15-15--0-10/12----0-12--15-15-15--0-10/12----------------------|
E|--------------------------------------------------------------------------|

E|--------------------------------------------------------------------------|
B|--------------------------------------------------------------------------|
G|--------------------------------------------------------------------------|
D|--------------------------------------------------------------------------|
A|--0-12--15-15-15--0-10/12----0-12--15-15-15--0-10/12----------------------|
E|--------------------------------------------------------------------------|

E|--------------------------------------------------------------------------|
B|--------------------------------------------------------------------------|
G|--------------------------------------------------------------------------|
D|--------------------------------------------------------------------------|
A|--0-12--15-15-15--0-10/12----0-12--15-15-15--0-10/12---------0-0----------|
E|--------------------------------------------------------------------------|
Добавлено: 03.09.2013
Другие материалы по этой песне:

Страница создана 25.02.2012
http://primanota.ru/death-from-above-1979/romantic-rights-chords.htm
Привет, Гость.
Предлагаем пройти революционный курс по гитаре.
Подарок от PrimaNota.Ru, забирай!