PrimaNota.ru - самый крупный в мире бесплатный архив песенных текстов, аккордов, табулатур и нот


Death From Above 1979 - Pull Out - текст песни, бас-таба, видео

Регистрация Запомнить меня
Войти через:  Facebook Google Twitter Vk Yandex Mail.ru

Death From Above 1979 - Pull Out - текст песни, бас-таба, видео

Печатать
Просмотров: 153
Уроки эстрадного вокала в Санкт-Петербурге
Allright..so the intro has two parts, high and low it seems. Here is the high part....

Intro/Verse
G |--12--12---10--10-8---10--10-7-8--8--8-7-5--|         \
D |--------------------------------------------|          \
A |--------------------------------------------|           \ 
E |--------------------------------------------|            \ 
                                                            /X3 
G |--12--12---10--10-8---10--10-7-8--8--8--14-15-14-15--|  / 
D |-----------------------------------------------------| /  
A |-----------------------------------------------------|/
E |-----------------------------------------------------|

Third time play this:

G |--10--10-7-8--8--8--8|
D |---------------------|
A |---------------------|
E |---------------------| 

Chorus
G |----------------------------------------------|
D |----------------------------------------------|
A |-----------------------------5-5-5-5-5-5-5-5--|
E |--5-5-5-5-5-5-5-5-5-5-5-5-5-------------------|

I didnt count it out, but you switch to the a-string when he starts saying "Pull Out"

Verse again
Chorus 2
G |------------------------------------------|
D |---------------------555---5-5-5-5-5-5-5-5|
A |------------------------------------------|
E |-5-5-5-5-5-5-5-5-5-5-----5----------------|
Once again, i didnt count it. just switch when the lyrics change

Play the verse riff for the outro...and we're done

So...yeah...this songs pretty sweet
e-mail giants_fan09@yahoo.com for corrections...


Добавлено: 20.12.2013
Другие материалы по этой песне:

Страница создана 29.04.2012
http://primanota.ru/death-from-above-1979/pull-out-chords.htm
Привет, Гость.
Предлагаем пройти революционный курс по гитаре.
Подарок от PrimaNota.Ru, забирай!