PrimaNota.ru - самый крупный в мире бесплатный архив песенных текстов, аккордов, табулатур и нот


Death From Above 1979 - The Physical World - бас-таба, видео

Регистрация Запомнить меня
Войти через:  Facebook Google Twitter Vk Yandex Mail.ru

Death From Above 1979 - The Physical World - бас-таба, видео

Печатать
Просмотров: 36
Artist: Death From Above 1979
Song: The Physical World
Album: The Physical World
Tabbed by: gustavoaraujo999@hotmail.com

**D Standard Tuning (Standard E tuning lowered a whole step). 
**Props to Dethdisko for his Tab Pro.


[Intro]
F|------------------------------------------------------------------------|
C|------------------------------------------------------------------------|
G|-------5--------5--------5--------5--------5--------5--------5-------5--|
D|-3-5-6----3-5-6----3-5-6----3-5-6----3-5-6----3-5-6----3-5-6----3-5-6---|

[Verse]
F|-----------------------------|
C|-----------------------------|
G|-12~~~-----8------7------0~--|
D|--------10---8------7--------|

F|-----------------------------|
C|-----------------------------|
G|-12~~~-----8------7------0~--|
D|--------10---8------7--------|

F|-----------------------------|
C|-----------------------------|
G|-12~~~-----8------7------0~--|
D|--------10---8------7--------|

F|-----------------------------|
C|-----------------------------|
G|-12~~~-----8------7------0~--|
D|--------10---8------7--------|

{Pre-chorus]
F|--------------------------------------------------------------------------------|
C|---------------------------------------------------------16------------------15-|
G|-12\-------x-x-x-15--12-12-12-12-12--14--12-12-12-12-12------12-12-12-12-12-----|
D|--------------------------------------------------------------------------------|

F|-----------------------------------------------------------------------------12-|
C|---------------------------------------------------------16---------------------|
G|-12-12-12-12-12--15--12-12-12-12-12--14--12-12-12-12-12------12-12-12-12-12-----|
D|--------------------------------------------------------------------------------|

F|--------------------------------------------------------------------------------|
C|---------------------------------------------------------16------------------15-|
G|-12-12-12-12-12--15--12-12-12-12-12--14--12-12-12-12-12------12-12-12-12-12-----|
D|--------------------------------------------------------------------------------|

F|-----------------------------------------------------------------------------12-|
C|---------------------------------------------------------16---------------------|
G|-12-12-12-12-12--15--12-12-12-12-12--14--12-12-12-12-12------12-12-12-12-12-----|
D|--------------------------------------------------------------------------------|

[Chorus]
F|-----------17\------------17-----------17\-----------17\---16\---|
C|-----------------------------------------------------------------|
G|-0-0-0-0-0------0-0-0-0-0----0-0-0-0-0-----0-0-0-0-0-----0-----0-|
D|-----------------------------------------------------------------|

F|-----------17\------------17-----------17\-----------17\---16\---|
C|-----------------------------------------------------------------|
G|-0-0-0-0-0------0-0-0-0-0----0-0-0-0-0-----0-0-0-0-0-----0-----0-|
D|-----------------------------------------------------------------|
F|-----------17\------------17-----------17\-----------17\---16\---|
C|-----------------------------------------------------------------|
G|-0-0-0-0-0------0-0-0-0-0----0-0-0-0-0-----0-0-0-0-0-----0-----0-|
D|-----------------------------------------------------------------|

F|-----------17\------------17-----------17\-----------17\---16\---|
C|-----------------------------------------------------------------|
G|-0-0-0-0-0------0-0-0-0-0----0-0-0-0-0-----0-0-0-0-0-----0-----0-|
D|-----------------------------------------------------------------|


[Verse]
F|-----------------------------|
C|-----------------------------|
G|-12~~~-----8------7------0~--|
D|--------10---8------7--------|

F|-24242424242424242424242424-|
C|----------------------------|
G|----------------------------|
D|----------------------------|

F|--------------------------------------------------------------------------------|
C|---------------------------------------------------------16------------------15-|
G|-15\-------x-x-x-15--12-12-12-12-12--14--12-12-12-12-12------12-12-12-12-12-----|
D|--------------------------------------------------------------------------------|

F|-----------------------------------------------------------------------------12-|
C|---------------------------------------------------------16---------------------|
G|-12-12-12-12-12--15--12-12-12-12-12--14--12-12-12-12-12------12-12-12-12-12-----|
D|--------------------------------------------------------------------------------|

F|--------------------------------------------------------------------------------------12-|
C|---------------------------------------------------------16------------------15----------|
G|-12-12-12-12-12--15--12-12-12-12-12--14--12-12-12-12-12------12-12-12-12-12-----12-12----|
D|-----------------------------------------------------------------------------------------|

F|-----------------------------------------------------------------------------12-|
C|---------------------------------------------------------16---------------------|
G|-12-12-12-12-12--15--12-12-12-12-12--14--12-12-12-12-12------12-12-12-12-12-----|
D|--------------------------------------------------------------------------------|

[Chorus]
F|-----------17\------------17-----------17\-----------17\---16\---|
C|-----------------------------------------------------------------|
G|-0-0-0-0-0------0-0-0-0-0----0-0-0-0-0-----0-0-0-0-0-----0-----0-|
D|-----------------------------------------------------------------|

F|-----------17\------------17-----------17\-----------17\---16\---|
C|-----------------------------------------------------------------|
G|-0-0-0-0-0------0-0-0-0-0----0-0-0-0-0-----0-0-0-0-0-----0-----0-|
D|-----------------------------------------------------------------|
 
F|-----------17\------------17-----------17\-----------17\---16\---|
C|-----------------------------------------------------------------|
G|-0-0-0-0-0------0-0-0-0-0----0-0-0-0-0-----0-0-0-0-0-----0-----0-|
D|-----------------------------------------------------------------|

F|-----------17\------------17-----------17\-----------17\---16\---|
C|-----------------------------------------------------------------|
G|-0-0-0-0-0------0-0-0-0-0----0-0-0-0-0-----0-0-0-0-0-----0-----0-|
D|-----------------------------------------------------------------|

[Interlude]
F|-----------------------------|
C|-----------------------------|
G|-12~~~-----8------7------0~--|
D|--------10---8------7^^------|


== [Part 2] ==

[Outro]
F|-------14-16-16b18br16--14-16-13h14p13h14p13h14p13--------------|
C|-----------------------------------------------------15-14-14\--|
G|-12~~-----------------------------------------------------------|
D|----------------------------------------------------------------|

F|-------12-14-14b16br14--12-14-11h12p11h12p11h12p11--------------|
C|-----------------------------------------------------13-12------|
G|-10--------------------------------------------------------0/---|
D|----------------------------------------------------------------|

F|-------14-16-16b18br16--14-19-13h14p13h14p13h14p13--14-16-b18br16-|
C|------------------------------------------------------------------|
G|-12~~-------------------------------------------------------------|
D|------------------------------------------------------------------|

F|-------12-14-14b16br14--12-14-11h12p11h12p11h12p11--------------|
C|-----------------------------------------------------13-12------|
G|-10--------------------------------------------------------0/---|
D|----------------------------------------------------------------|



F|-------14-16-16b18br16--14-16-13h14p13h14p13h14p13--------------|
C|-----------------------------------------------------15-14-14\--|
G|-12~~-----------------------------------------------------------|
D|----------------------------------------------------------------|

F|-------12-14-14b16br14--12-14-11h12p11h12p11h12p11--------------|
C|-----------------------------------------------------13-12------|
G|-10--------------------------------------------------------xxxx-|
D|----------------------------------------------------------------|

F|-------14-16-16b18br16--14-19-13h14p13h14p13h14p13--14-16-b18br16-|
C|------------------------------------------------------------------|
G|-12~~-------------------------------------------------------------|
D|------------------------------------------------------------------|

F|-------12-14-14b16br14--12-14-11h12p11h12p11h12p11--------------|
C|-----------------------------------------------------13-12------|
G|-10--------------------------------------------------------xxxx-|
D|----------------------------------------------------------------|



F|-------14-16-16b18br16--14-16--13-14-13-14-13----------------------|
C|----------------------------------------------15-14-15-17-15-14-12-|
G|-12~~--------------------------------------------------------------|
D|-------------------------------------------------------------------|

F|-------12-14-14b16br14--12-14-11h12p11h12p11h12p11--------------|
C|-----------------------------------------------------13-12------|
G|-10--------------------------------------------------------\\\\-|
D|----------------------------------------------------------------|

F|-------14-16-16b18br16--14-19-13h14p13h14p13h14p13--14-16-b18br16-|
C|------------------------------------------------------------------|
G|-12~~-------------------------------------------------------------|
D|------------------------------------------------------------------|

F|-------12-14-14b16br14--12-14-11h12p11h12p11h12p11--------------|
C|-----------------------------------------------------13-12------|
G|-10--------------------------------------------------------xxxx-|
D|----------------------------------------------------------------|



F|-------14-16-16b18br16--14-16-13h14p13h14p13h14p13--------------|
C|-----------------------------------------------------15-14-14\--|
G|-12~~-----------------------------------------------------------|
D|----------------------------------------------------------------|

F|-------12-14-14b16br14--12-14-11h12p11h12p11h12p11--------------|
C|-----------------------------------------------------13-12------|
G|-10-----------------(fades out)----------------------------0/-0-|
D|----------------------------------------------------------------|
Добавлено: 28.04.2016
Другие материалы по этой песне:
  • Аккорды и текст

Страница создана 28.04.2016
http://primanota.ru/death-from-above-1979/physical-world-chords.htm
Привет, Гость.
Предлагаем пройти революционный курс по гитаре.
Подарок от PrimaNota.Ru, забирай!