PrimaNota.ru - самый крупный в мире бесплатный архив песенных текстов, аккордов, табулатур и нот


Death From Above 1979 - Little Girl - текст песни, бас-таба, видео

Регистрация Запомнить меня
Войти через:  Facebook Google Twitter Vk Yandex Mail.ru

Death From Above 1979 - Little Girl - текст песни, бас-таба, видео

Печатать
Просмотров: 346
Song: Little Girl
Artist: Death From Above 1979
Tuning: Standard 
Tabbed By: Kizza

.= staccato (shorten note)
~= let ring
/= slide to indicated note

Intro:

G|----------------------------------------------|
D|----------------------------------------------|
A|-8-10-10-10-8-8-8-----------------------------|
E|------------------8-8-8--6-6-6----------------|

G|----------------------------------------------|
D|----------------------------------------------|
A|-8-10-10-10-10-10-10-10-10-10-10-10.-10.-10.--|
E|----------------------------------------------|

G|----------------------------------------------|
D|----------------------------------------------|
A|-10-10-10-10-10-10-10-10-10-10-10-10~---------|
E|----------------------------------------------|

Verse 1: (x7) during fifth time singing comes in.

G|------------------------|---------------------|
D|------------------------|------------10-10----|
A|-8-10-10-10-10-10-10-13-|-8-8-8-8-8-8---------|
E|------------------------|---------------------|

G|----------------------------------------------|
D|--------------7-7-----------------------------|
A|-5-5-5-5-5-5------3-3-3-3-3-3-----------------|
E|----------------------------------------------|

G|----------------------------------------------|
D|----------------------------------------------|
A|-8-10-10-10-10-10-10-10-10-10-10-10.-10.-10.--|
E|----------------------------------------------|

G|----------------------------------------------|
D|----------------------------------------------|
A|-10-10-10-10-10-10-10-10-10-10-10-10~---------|
E|----------------------------------------------|

Next bit comes in at 1:35

G|-----------------|-----------------|
D|-----------------|-----------------|
A|-7-7-7-7-7-7-7-7-|-5-5-5-5-5-5-5-5-|
E|-----------------|-----------------|

G|-----------------|-----------------------------|
D|-----------------|-----------------------------|
A|-0-0-0-0-0-0-0-0-|-0-0-0-0-0-0-0-0-0-----------|
E|-----------------|-----------------------------|



Verse 2: (x4) 
Comes in at 1:41
G|----------12/0--------------------------------|
D|----------------------------9----8----7-------|	
A|-9-9-9-9--------9-9-9-9-----------------------|
E|-------------------------7----7----7----------|

Then it
Добавлено: 06.10.2013
Другие материалы по этой песне:
  • Аккорды и текст

Страница создана 29.07.2012
http://primanota.ru/death-from-above-1979/little-girl-chords.htm
Привет, Гость.
Предлагаем пройти революционный курс по гитаре.
Подарок от PrimaNota.Ru, забирай!