PrimaNota.ru - самый крупный в мире бесплатный архив песенных текстов, аккордов, табулатур и нот


Death From Above 1979 - If We Don'T Make It, We'Ll Fake It - текст песни, бас-таба, видео

Регистрация Запомнить меня
Войти через:  Facebook Google Twitter Vk Yandex Mail.ru

Death From Above 1979 - If We Don'T Make It, We'Ll Fake It - текст песни, бас-таба, видео

Печатать
Просмотров: 147
Уроки эстрадного вокала в Санкт-Петербурге
Distortion: weapon of choice.

Intro
G----------------------------|
D----------------------------|
A----------------------------|
E-5-5-5-5-5-3-5-5-5-5-5-3----|

Verse
G-------------------------------------|
D-3-3-3-3-3-3-3-3---------------------|
A-----------------3-5-5-5-5-5-5-5-5---|
E-------------------------------------|

G-----------------------------|
D-7-7-7-7-7-5-7-7-7-7-7-5-----|
A-----------------------------|
E-----------------------------|

G-------------------------------------|
D-3-3-3-3-3-3-3-3---------------------|
A-----------------3-5-5-5-5-5-5-5-5---|
E-------------------------------------|

G----------------------------|
D----------------------------|
A----------------------------|
E-5-5-5-5-5-3-5-5-5-5-5-3----|

Chorus
G----------------------------------------------------------|
D---------3-5-5-5-5-2-3-3-3-3------------------------------|
A-----------------------------3-5-5-5-5--------------------|
E-5-5-5-5-------------------------------3-5-5-5-5----------|

G-----------------------------5--------5-------------------|
D---------3-5-5-5-5-2-3-3-3-3------------------------------|
A------------------------------5-5-5-5---------------------|
E-5-5-5-5--------------------------------------------------|

Outro
G-----------------------------------------------------------|  (no so sure bout
D-3-5-7-9-7-9-7-5-3-3-5-7-5-3-------------------------------| this part, sounds
A-----------------------------------------------------------|   vaguely right)
E-----------------------------------------------------------|
Добавлено: 04.02.2014
Другие материалы по этой песне:
  • Аккорды и текст

Страница создана 07.03.2012
http://primanota.ru/death-from-above-1979/if-we-dont-make-it-well-fake-it-chords.htm
Привет, Гость.
Предлагаем пройти революционный курс по гитаре.
Подарок от PrimaNota.Ru, забирай!