PrimaNota.ru - самый крупный в мире бесплатный архив песенных текстов, аккордов, табулатур и нот


Death From Above 1979 - Do It Live - бас-таба, видео

Регистрация Запомнить меня
Войти через:  Facebook Google Twitter Vk Yandex Mail.ru

Death From Above 1979 - Do It Live - бас-таба, видео

Печатать
Просмотров: 133
Tabbed By : matddors
e-mail: matddors@comcast.net

Tuning: standard

1st Part (12x)

0:04
G|-------------------------------------------------------------------------|
D|---0------3-5-1----------------------------------------------------------|
A|-1---1----------3--------------------------------------------------------|
E|-------3-----------------------------------------------------------------|

2nd Part (8x)

0:53
G|-------------------------------------------------------------------------|
D|-------------------------------------------------------------------------|
A|-------------------------------------------------------------------------|
E|--3333333333334422-------------------------------------------------------|

3rd Part (6x)

1:25
G|-------------------------------------------------------------------------|
D|---0------3-5-1----------------------------------------------------------|
A|-1---1----------3--------------------------------------------------------|
E|-------3-----------------------------------------------------------------|

4th Part

1:49
G|-------------------------------------------------------------------------|
D|-------------------------------------------------------------------------|
A|-------------------------------------------------------------------------|
E|-3~--------3~------------------------------------------------------------|

5th Part (11x)

2:04
G|------------------------------------------------------------------7------|
D|-----------------------------------------------8----------10-------------|
A|--810101010-8----------8------8------810101010---------------------------|
E|--------------10101010---8888---3333-------------10101010----8888----3333|

6th Part (4x)

3:24
G|-------------------------------------------------------------------------|
D|-------------------------------------------------------------------------|
A|----------3------3-------------------------------------------------------|
E|-66669999---3333---3333--------------------------------------------------|

7th Part (1x)

3:36
G|-------------------------------------------------------------------------|
D|-------------------------------------------------------------------------|
A|-------------------------------------------------------------------------|
E|-66669999----------------------------------------------------------------|

8th Part (9x)

3:38
G|--------------------10797------------------------------------------------|
D|-7----7----7---7----------10--7----7----7---7----10797-------------------|
A|---88---88---8---88-------------88---88---8---88-------10----------------|
E|-------------------------------------------------------------------------|

9th Part (x)

4:23
G|-------------------------------------------------------------------------|
D|-7----7----7----7--------------------------------------------------------|
A|---88---88---88---88-----------------------------------------------------|
E|-------------------------------------------------------------------------|

10th Part (2x)

4:28
G|-------------------------------------------------------------------------|
D|-7----7----7---7----7----7-----------------------------------------------|
A|---88---88---8---88---88---8---------------------------------------------|
E|-------------------------------------------------------------------------|

End On (1x)

4:34
G|-----------14-----------16-----------17----------------------------------|
D|-7----7-------7----7-------7----7-------7----7----7----------------------|
A|---88---88------88---88------88---88------88---88------------------------|
E|----------------------------------------------------3--------------------|





1st and 3rd Part Variation
 
G|-----------------5-------------------------------------------------------|
D|---0-----3-5-1-----------------------------------------------------------|
A|-1---1---------3---------------------------------------------------------|
E|-------3-----------------------------------------------------------------|
Добавлено: 20.10.2013
Другие материалы по этой песне:
  • Аккорды и текст

Страница создана 20.10.2013
http://primanota.ru/death-from-above-1979/do-it-live-chords.htm
Привет, Гость.
Предлагаем пройти революционный курс по гитаре.
Подарок от PrimaNota.Ru, забирай!