PrimaNota.ru - самый крупный в мире бесплатный архив песенных текстов, аккордов, табулатур и нот


Death From Above 1979 - Dead Womb - текст песни, бас-таба, видео

Регистрация Запомнить меня
Войти через:  Facebook Google Twitter Vk Yandex Mail.ru

Death From Above 1979 - Dead Womb - текст песни, бас-таба, видео

Печатать
Просмотров: 298
ya i think the tab is right but if not just comment

intro
G-------------------------------------------------5-----5h7-|
D-----5/88888-5-66666-33333-55-----5/88888-5-66666-33333----|
A33333---------------5--------33333-------------------------|x2
E-----------------------------------------------------------|

G---------------------------------------------------------------------|
D33333333-5555/8888---------------------------------------------------|
A------------------3333333333333333-5555555555555555-3333333333333333-|
E---------------------------------------------------------------------|

G--------------------------------------------------------------|
D33333333-5555/10101010----------------------------------------|
A----------------------55555555-7777/10101010-0333333333333333-|
E--------------------------------------------------------------|

G-------------------------------------------|
D------------3333-5555------------3333-5555-|
A333-333-333----------333-333-333-----------|x2
E-------------------------------------------|

G-------------------------------------------------5-----5h7-|
D-----5/88888-5-66666-33333-55-----5/88888-5-66666-33333----|
A33333---------------5--------33333-------------------------|x2
E-----------------------------------------------------------|
Добавлено: 15.01.2014
Другие материалы по этой песне:
  • Аккорды и текст

Страница создана 27.03.2012
http://primanota.ru/death-from-above-1979/dead-womb-chords.htm
Привет, Гость.
Предлагаем пройти революционный курс по гитаре.
Подарок от PrimaNota.Ru, забирай!