PrimaNota.ru - самый крупный в мире бесплатный архив песенных текстов, аккордов, табулатур и нот


Death From Above 1979 - Blood On Our Hands - текст песни, таба, бас-таба, видео

Регистрация Запомнить меня
Войти через:  Facebook Google Twitter Vk Yandex Mail.ru

Death From Above 1979 - Blood On Our Hands - текст песни, таба, бас-таба, видео

Печатать
Просмотров: 120
INTRO (X2)

E-------------------------------------------------------------------|
B-------------------------------------------------------------------|
G-------------------------------------------------------------------|
D-Pickscrape--------------------------------------------------------|
A-------------------55555--5-5-5-5--7-7-----------------------------|
E-------------------33333--3-3-3-3--5-5-----------------------------|

E-------------------------------------------------------------------|
B-------------------------------------------------------------------|
G-4444--55555-------------------------------------------------------|
D-xxxx--xxxxx-------------------------------------------------------|
A-2222--33333-------------------------------------------------------|
E-------------------------------------------------------------------|

VERSE (X2)

E-------------------------------------------------------------------|
B-------------------------------------------------------------------|
G-------------------------------------------------------------------|
D---------8-7--5-7--3-3h5-5-----------8-7--5-7--3-3h5-5-------------|
A-55555-------------------------77777-------------------------------|
E-33333-------------------------55555-------------------------------|

INTRO (X2)
VERSE (X4)


BRIDGE (X4)

E-------------------------------------------------------------------|
B----------------------------13~------------------------------------|
G-12~---14-15-14~----15---------------------------------------------|
D-------------------------------------------------------------------|
A-------------------------------------------------------------------|
E-------------------------------------------------------------------|

INTRO (X2)
VERSE (X4)


OUTRO (X1)

E-------------------------------------------------------------------|
B-------------------------------------------------------------------|
G-------------------------------------------------------------------|
D---023---023---55-02355--023-33---023-33---55-02355----------------|
A-------------------------------------------------------------------|
E-------------------------------------------------------------------|
Добавлено: 03.02.2014
Другие материалы по этой песне:

Страница создана 05.03.2012
http://primanota.ru/death-from-above-1979/blood-on-our-hands-chords.htm
Привет, Гость.
Предлагаем пройти революционный курс по гитаре.
Подарок от PrimaNota.Ru, забирай!