PrimaNota.ru - самый крупный в мире бесплатный архив песенных текстов, аккордов, табулатур и нот


Death Cab For Cutie - Title Track - текст песни, таба, видео

Регистрация Запомнить меня
Войти через:  Facebook Google Twitter Vk Yandex Mail.ru

Death Cab For Cutie - Title Track - текст песни, таба, видео

Печатать
Просмотров: 168
Date: Mon, 24 Feb 2003 16:36:11 -0800 
Subject: d/death_cab_for_cutie/title_track.tab

Artist: Death Cab for Cutie
Album : We Have the Facts and We're Voting Yes
Song  : Title Track

Intro and Verse:

e|---------|---------|---------|---------|
B|---------|---------|---------|-------2-|
G|-----4---|-----4---|-----4---|-----4---|
D|---2---2-|---2---2-|---2---2-|---2-----|
A|-4-------|-2-------|-4-------|-2-------|
E|---------|---------|---------|---------|

e|---------|---------|---------|---------|
B|---------|---------|-------2-/-5-------|
G|-----4---|-----4---|-----4---|---------|
D|---2---2-|---2---2-|---2-----|---------|
A|-4-------|-2-------|-0-------|---------|
E|---------|---------|---------|---------|

Play twice for Intro,
Play four times for the Verses.

Chorus:

e|---------|---------|---------|---------|
B|---------|---------|---------|---------|
G|-x-4/6-6-/-8-8-6-88|-x-4/6-6-/-8-8-6-8-|
D|---------|---------|---------|---------|
A|---------|---------|---------|---------|
E|---------|---------|---------|---------|
|         |         |         |         |
e|-x-------|-x-------|-x-------|-x-------|
B|-x-------|-x-------|-x-------|-x-------|
G|-6-------|-8-------|-6-------|-8-------|
D|-7-------|-9-------|-7-------|-9-------|
A|-7-------|-9-------|-7-------|-9-------|
E|-5-------|-7-------|-5-------|-7-------|

Play once for first chorus.
Play twice for second chorus.

Bridge/Outro:

e|-x-x-x-x-|-x-x-x-x-|-x-x-x-x-|-x-x-x-x-|
B|-5-5-5-5-|-5-5-5-5-|-5-5-5-5-|-5-5-5-5-|
G|-6-6-6-6-|-6-6-6-6-|-6-6-6-6-|-6-6-6-6-|
D|-7-7-7-7-|-7-7-7-7-|-7-7-7-7-|-7-7-7-7-|
A|-7-7-7-7-|-7-7-7-7-|-7-7-7-7-|-7-7-7-7-|
E|-5-5-5-5-|-5-5-5-5-|-5-5-5-5-|-5-5-5-5-|

e|-x-x-x-x-|-x-x-x-x-|-x-x-x-x-|-x-x-x-x-|
B|-9-9-9-9-|-9-9-9-9-|-9-9-9-9-|-9-9-9-9-|
G|-9-9-9-9-|-9-9-9-9-|-9-9-9-9-|-9-9-9-9-|
D|-9-9-9-9-|-9-9-9-9-|-9-9-9-9-|-9-9-9-9-|
A|-7-7-7-7-|-7-7-7-7-|-7-7-7-7-|-7-7-7-7-|
E|-7-7-7-7-|-7-7-7-7-|-7-7-7-7-|-7-7-7-7-|

Repeat 10 times.

Добавлено: 21.04.2012
Другие материалы по этой песне:

Страница создана 14.03.2012
http://primanota.ru/death-cab-for-cutie/title-track-chords.htm
Привет, Гость.
Предлагаем пройти революционный курс по гитаре.
Подарок от PrimaNota.Ru, забирай!