PrimaNota.ru - самый крупный в мире бесплатный архив песенных текстов, аккордов, табулатур и нот


Death Cab For Cutie - Employment Pages - текст песни, таба, видео

Регистрация Запомнить меня
Войти через:  Facebook Google Twitter Vk Yandex Mail.ru

Death Cab For Cutie - Employment Pages - текст песни, таба, видео

Печатать
Просмотров: 161
artist: Death Cab For Cutie
song: The Employment Pages
album: We Have the Facts, and We're Voting Yes

hey everyone, sorry I dont have the rest of this song tabbed out, but its hard for me to 
him play anything after the 2nd time he says, "as you sleep" but I hope the intro I 
out will motivate people to complete it. Its a beautiful song.


"we spread out..."
e|-------------------------------------|
b|-------------------------------------|
g|----9----9----9----9---6---6---6---6-| repeat 4 times
d|-12---12---11---11---7---7---5---5---|
a|-------------------------------------|
E|-------------------------------------|

or.....

"we spread out..."
e|-------------------------------------|
b|---5---5---5---5---2---2---2---2-----|
g|-7---7---6---6---2---2---0---0-------| repeat 4 times
d|-------------------------------------|
a|-------------------------------------|
E|-------------------------------------|

We spread out and occupy the cracks in the urban streets.
Idle now... i rearrange the furniture as you sleep.
It's so appropriate... the way we amplify the sound,
And then the neighbors drop by and they ask (us) to turn it down again...
We spread out and everyone is frightfully more aware.
So impressed... the cocktail polotics and obscure details.
And it was true that i was truly failing.
But you were gone and i wass home calling around but nothing was found worthwhile.


I know its not much, but i hope youe found it useful.
Добавлено: 24.07.2012
Другие материалы по этой песне:
  • Аккорды и текст

Страница создана 17.06.2012
http://primanota.ru/death-cab-for-cutie/employment-pages-chords.htm
Привет, Гость.
Предлагаем пройти революционный курс по гитаре.
Подарок от PrimaNota.Ru, забирай!