PrimaNota.ru - самый крупный в мире бесплатный архив песенных текстов, аккордов, табулатур и нот


Death Cab For Cutie - Death Of An Interior Decotator - таба, бас-таба, видео

Регистрация Запомнить меня
Войти через:  Facebook Google Twitter Vk Yandex Mail.ru

Death Cab For Cutie - Death Of An Interior Decotator - таба, бас-таба, видео

Печатать
Просмотров: 143
Уроки эстрадного вокала в Санкт-Петербурге
 Intro and Verse
E----------------------------------------|
B-3----------4--4-3--------------4--4--3-|
G-3----------3--3-3--3-----------3--3--3-|  x3
D-3---0-3-0--1--1-1--3----0-3-0--1--1--1-|
A-1--1-1-------------1----1-1------------|
E---3-------------------3----------------|

 1st Chorus "can you tell me why..."
E--------------|
B--------------|
G-2------5-----|
D-3------4-----|
A-3------5-----|
E-1------------|

 2nd Chorus
E--------------------|
B--------------------|
G-2--5---------------|
D-3--4---0-0----0-0--|
A-3--5--1-1-0--6-6-6-|
E-1------------------|

E--------------|
B--------------|
G-2-----5------|
D-3-----4------|
A-3-----5------|
E-1------------|


 Bridge "the girls were all there"
E--------1-------------------|
B----1-3--3-----3--1--4------|
G--3--3-3--3--3--3--3--3-----|
D-1-1--1-1---0-0--0--0--0----|
A----------------------------|
E----------------------------|


"and it felt just like falling in love again..."
E------------|
B-4----------|
G-5--3--2--4-|
D-5--5--3--5-|
A-3--5--3--5-|
E----3--1--3-|


"and it felt like falling in love...again"
E-----------------------|
B-4---------4--4--4--4--|
G-5--3--2----3--3--3--3-|
D-5--5--3-----1--1--1---|
A-3--5--3---------------|
E----3--1---------------|

Enjoy
Добавлено: 19.11.2013
Другие материалы по этой песне:
  • Аккорды и текст

Страница создана 19.11.2013
http://primanota.ru/death-cab-for-cutie/death-of-an-interior-decotator-chords.htm
Привет, Гость.
Предлагаем пройти революционный курс по гитаре.
Подарок от PrimaNota.Ru, забирай!