PrimaNota.ru - самый крупный в мире бесплатный архив песенных текстов, аккордов, табулатур и нот


Death Cab For Cutie - Brother On A Hotel Bed - аккорды и текст, таба, видео

Регистрация Запомнить меня
Войти через:  Facebook Google Twitter Vk Yandex Mail.ru

Death Cab For Cutie - Brother On A Hotel Bed - аккорды и текст, таба, видео

Печатать
Просмотров: 87
Brother On A Hotel Bed
Death Cab For Cutie
Capo 3, chord names relative to capo.

I like to keep an F bass note (fretted with the thumb) on all the chords except G. In 
I play the G and F a little differently than normal. This is how I play all the chords, 
I prefer the sound:

Am- 102210
C-  132010
F-  133210
G-  355430


Intro (from tab by hashbrownie)

|-----3----------0----------3----------0--0-------|
|-------3----1----------------3----1----------1-3-|
|--2-----------0---2-----2-----------0----2-------|
|--2------2--------------2------2-----------------|
|---------0----3----(2)---------0----3------------|
|--1-----------------1---1----------------1-------|

|-----3----------0---------------------0--0----------------------|
|-------3----1--------------1-3----1-----------3---------1-------|
|--2-----------0---2-----2-----------0----2----4----5----2--0--2-|
|--2------2--------------2------2------------------------------2-|
|---------0----3----(2)---------0----3--------------3----0-------|
|--1-----------------1---1----------------1----3----4------------|

|-----3----------0----------3----------0--0--|-----|
|-------3----1----------------3----1---------|-1-3-|
|--2-----------0---2-----2-----------0----2--|-----|
|--2------2--------------2------2------------|-----|
|---------0----3----(2)---------0----3-------|-----|
|--1-----------------1---1----------------1--|-----|

|-----3----------0------|
|-------3----1----------|
|--2-----------0---2----|
|--2------2-------------|
|---------0----3--------|
|--1-----------------1--|


Am
You may tire of me
C
As our December sun is setting
F                     G
Because I'm not who I used to be
Am
No longer easy on the eyes
C                                 F
But these wrinkles masterfully disguise
                   G
The youthful boy below

Who turned your way and saw
Something he was not looking for
Both a beginning and an end
But now he lives inside
Someone he does not recognize
When he catches his reflection on accident

On the back of a motorbike
With your arms outstretched, trying to take flight
Leaving everything behind
But even at our swiftest speed
We couldn't break from the concrete
And the city where we still reside

And I have learned
That even landlocked lovers yearn
For the sea like navy men
Because now we say goodnight
From our own seperate sides
Like brothers on a hotel bed
Like brothers on a hotel bed
Like brothers on a hotel bed
Like brothers on a hotel bed

You may tire of me
As our December sun is setting
Because I'm not who I used to be
Добавлено: 10.08.2013
Другие материалы по этой песне:
  • Аккорды и текст

Страница создана 10.08.2013
http://primanota.ru/death-cab-for-cutie/brother-on-a-hotel-bed-chords.htm
Привет, Гость.
Предлагаем пройти революционный курс по гитаре.
Подарок от PrimaNota.Ru, забирай!