PrimaNota.ru - самый крупный в мире бесплатный архив песенных текстов, аккордов, табулатур и нот


Death Cab For Cutie - Bixby Canyon Bridge - текст песни, таба, бас-таба, видео

Регистрация Запомнить меня
Войти через:  Facebook Google Twitter Vk Yandex Mail.ru

Death Cab For Cutie - Bixby Canyon Bridge - текст песни, таба, бас-таба, видео

Печатать
Просмотров: 131
ARTIST : Death Cab for Cutie
TRACK  : Bixby Canyon Bridge
ALBUM  : Narrow Stairs
TUNING : Standard
AUTHOR : blakwyte(at)gmail.com

Verse:

 |WALLA
e|----------|
B|--5#--1#--|
G|--5#--2#--| x4
D|----------|
A|----------|
E|----------|

Chorus:

 |GIBBARD
e|--------0-----------0------------------------------|
B|------1---1-------1---1---------1-----------0------|
G|----2-------2---2-------2-----0---0-------0---0----|
D|--3-----------3-------------2-------2---0-------0--|
A|--------------------------3-----------2------------|
E|---------------------------------------------------|
 |                                                   |  > x3
 |WALLA                                              |
e|---------------------------------------------------|
B|--6#----------------------13#---------8#-----------|
G|---------------------------------------------------|
D|---------------------------------------------------|
A|---------------------------------------------------|
E|---------------------------------------------------|


 |GIBBARD
e|--------0-----------0-----------0-----------0--------|
B|------1---1-------1---1-------1---1-------1---1------|
G|----2-------2---2-------2---2-------2---2-------2----|
D|--3-----------3-----------3-----------3--------------|
A|--------------------------------------------------3--|
E|-----------------------------------------------------|
 |                                                     |
 |WALLA                                                |
e|-----------------------------------------------------|
B|--6#-------------------------------------------------|
G|-----------------------------------------------------|
D|-----------------------------------------------------|
A|-----------------------------------------------------|
E|-----------------------------------------------------|

Bridge:

 |GIBBARD (+ WALLA AFTER 2 REPS)
e|--------------------------------------|
B|--------------------------------------|
G|--------------------0-0-0-0-----------| x7
D|--3-3-3-3--3-3-3-3--2-2-2-2--5-5-5-5--|
A|--3-3-3-3--3-3-3-3--3-3-3-3--5-5-5-5--|
E|--1-1-1-1--1-1-1-1-----------3-3-3-3--|


 |GIBBARD
e|--------2-----------0------|
B|------1-----1-----1--------|
G|----2-----------2-------2--|
D|--0-----------3------------|
A|---------------------------|
E|---------------------------|
 |                           |  > x4
 |WALLA                      |
e|---------------------------|
B|---------------------------|
G|--5------------------------|
D|--4-----------3------------|
A|--5-----------3------------|
E|--------------1------------|


 |GIBBARD
e|--------------------------------------|
B|--------------------------------------|
G|--------------------------------------|
D|--------------------------------------|
A|--9-----10/15-------------------------|
E|--------------------------------------|
 |                                      |  > x8
 |WALLA                                 |
e|--------------------------------------|
B|--------------------------------------|
G|--5-5-5-5--5-5-5-5--------------------|
D|--4-4-4-4--4-4-4-4--3-3-3-3--3-3-3-3--|
A|--5-5-5-5--5-5-5-5--3-3-3-3--3-3-3-3--|
E|--------------------1-1-1-1--1-1-1-1--|


 |GIBBARD                                |1st     |2nd   |
e|---------------------------------------|--------|------|
B|---------------------------------------|--------|------|
G|-------------------------------9b10r9--|-9b10r9-|-7----|
D|----------------------------10---------|--------|---10-|
A|--9-----10/15----10-9-8----------------|--------|------|
E|---------------------------------------|--------|------|
 |                                       |        |      |  > x11
 |WALLA                                  |        |      |
e|---------------------------------------|--------|------|
B|---------------------------------------|--------|------|
G|--5-5-5-5--5-5-5-5---------------------|--------|------|
D|--4-4-4-4--4-4-4-4----3-3-3-3--3-3-3-3-|--------|------|
A|--5-5-5-5--5-5-5-5----3-3-3-3--3-3-3-3-|--------|------|
E|----------------------1-1-1-1--1-1-1-1-|--------|------|


 |GIBBARD
e|------------------------------------------------|
B|------------------------------------------------|
G|-------------------------------9b10r9-(REP x6)--|
D|----------------------------10------------------|
A|--9-----10/15----10-9-8-------------------------|
E|------------------------------------------------|
 |                                                |
 |WALLA                                           |
e|------------------------------------------------|
B|------------------------------------------------|
G|--5-5-5-5--5-5-5-5------------------------------|
D|--4-4-4-4--4-4-4-4----3-3-3-3--3-3-3-3----------|
A|--5-5-5-5--5-5-5-5----3-3-3-3--3-3-3-3----------|
E|----------------------1-1-1-1--1-1-1-1----------|

Legend:

# - tremolo picking
/ - slide
b - bend
r - return

Order:

VERSE
CHORUS
VERSE
CHORUS
BRIDGE
VERSE

Other Instructions:

1. Enjoy learning and playing this excellent song.
2. That is all.
Добавлено: 15.10.2013
Другие материалы по этой песне:
  • Аккорды и текст

Страница создана 12.10.2013
http://primanota.ru/death-cab-for-cutie/bixby-canyon-bridge-chords.htm
Привет, Гость.
Предлагаем пройти революционный курс по гитаре.
Подарок от PrimaNota.Ru, забирай!