PrimaNota.ru - самый крупный в мире бесплатный архив песенных текстов, аккордов, табулатур и нот


Death By Stereo - Death For Life - текст песни, бас-таба, видео

Регистрация Запомнить меня
Войти через:  Facebook Google Twitter Vk Yandex Mail.ru

Death By Stereo - Death For Life - текст песни, бас-таба, видео

Печатать
Просмотров: 188
Death By Stereo
Death For Life
Day Of The Death
E Flat Tuning

Tune everything a half step down for this song.  

Comments, suggestions, and ratings are all welcome.  Thanks and enjoy! :)

Part A - 0:00 - (x3)
G|--------|
D|--------|
A|--------|
E|--000---|

Part B - 0:06 - (x1)
G|----------------------------------------|
D|----------------------------------------|
A|----------------------------------------|
E|--3-55-3-0000-0000-000-3553-0000-0000---|

Part C - 0:12 - (x3)
G|---------------------------------------------|
D|--222--------------------------------44445---|
A|------------------5550-3330-0000-222---------|
E|------3-55-3-0000----------------------------|

Part D - 0:30 - (x2) 
G|-----------|
D|--222-22---|
A|-----------|
E|-----------|

Part E - 0:33 - (x2)
G|---------------------------------|
D|--2----------------------0-------|
A|------0-----222-3----0-3----02---|
E|----3---3-0--------3-------------|

Part C - 0:45 - (x2)

Part F - 0:51 - (x2)
G|-------------------|
D|-----------0-------|
A|--3---0--3---0-2---|
E|----3--------------|

Part G - 1:02 - (x1)
G|--------------------------------------------|
D|--2222-2222-----------0000-0000-------------|
A|------------3333-3333-----------3333-3333---|
E|--------------------------------------------|

G|--------------------------------------------|
D|--2222-2222-----------0000-0000-1111-1111---|
A|------------3333-3333-----------------------|
E|--------------------------------------------|

Part E - 1:14 - (x2)

Part F - 1:25 - (x2)

Part E - 1:31 - (x1)

Part F - 1:37 - (x1)

Part C - 1:42 - (x2)

Part G - 1:54 - (x1)

Part H - 2:06 - (x1)
G|--------|
D|--222---|
A|--------|
E|--------|

Part I - 2:08 - (x4)
G|-------------------------------------------------------------------|
D|------------0-0000000----------22222222----------00000000-11111111-|
A|--3-3333333-----------33333333----------33333333-------------------|
E|-------------------------------------------------------------------|

G|-------------|
D|--22222222---|
A|-------------|
E|-------------|

G|-------------------------------------------------------------------|
D|------------0-0000000----------22222222----------00000000-11111111-|
A|--3-3333333-----------33333333----------33333333-------------------|
E|-------------------------------------------------------------------|

G|-----------|
D|--222-22---|
A|-----------|
E|-----------|

Part I - 2:29 - (x4)
G|-----------------------------------|
D|----------------------------4445---|
A|-----------------------2222--------|
E|--000-00-000-00-000-00-------------|

Ending - 2:53 - (x1)
G|--------|
D|--------|
A|--------|
E|--000---|
Добавлено: 06.04.2012
Другие материалы по этой песне:
  • Аккорды и текст

Страница создана 06.04.2012
http://primanota.ru/death-by-stereo/death-for-life-chords.htm
Привет, Гость.
Предлагаем пройти революционный курс по гитаре.
Подарок от PrimaNota.Ru, забирай!