PrimaNota.ru - самый крупный в мире бесплатный архив песенных текстов, аккордов, табулатур и нот


Death Breath - His Protoplasmic Worship - таба, видео

Регистрация Запомнить меня
Войти через:  Facebook Google Twitter Vk Yandex Mail.ru

Death Breath - His Protoplasmic Worship - таба, видео

Печатать
Просмотров: 57
Death Breath - His protoplasmic worship
C# Tuning (1.5 Steps down)

If you have any corrections, post it in the comment section.
And Ill update the tab from my profile

INTRO RIFF
|-------------------------------------------------------------------------|
|-------------------------------------------------------------------------|
|-------------------------------------------------------------------------|
|---------4-----4-----4------------------4-----4-3-3-3-3-3-3--------------|
|---------4-----4-----4-----3p2p0-3p2p0--4-----4-3-3-3-3-3-3--------------|
|---------2-222-2-222-2-222--------------2-222-2-1-1-1-1-1-1--------------|
           PMPM  PMPM   PMPM              PMPM
|-------------------------------------------------------------------------|
|-------------------------------------------------------------------------|
|---------7-----7-----7---------------------------------------------------|
|---------7-----7-----7------------------4-----4-----4----3--7------------|
|---------5-555-5-555-5-555-3p2p0--------4-----4-----4----3--7------------|
|---------------------------------3p2p0--2-222-2-222-2----1--5------------|
CTND        PMPM PMPM  PMPM               PMPM  PMPM
|-------------------------------------------------------------------------|
|-------------------------------------------------------------------------|
|-------------------------------------------------------------------------|
|---------4-----4-----4------------------4-----4-----3-----3--------------|
|---------4-----4-----4-----3p2p0-3p2p0--4-----4-----3-----3--------------|
|---------2-222-2-222-2-222--------------2-222-2-222-1-111-1-111----------|
           PMPM  PMPM   PMPM              PMPM   PMPM  PMPM  PMPM

|-------------------------------------------------------------------------|
|-------------------------------------------------------------------------|
|---------7-----7-----7---------------------------------------------------|
|---------7-----7-----7------------------4-----4-----3-3-3--3-7-5---------|
|---------5-555-5-555-5-555-3p2p0--------4-----4-----3-3-3--3-7-3---------|
|---------------------------------3p2p0--2-222-2-222-1-1-1--1-5-----------|
           PMPM  PMPM  PMPM               PMPM  PMPM



1ST VERSE 2x
|-------------------------------------------------------------------------|
|-------------------------------------------------------------------------|
|-------------------------------7-----------------------------------------|
|-4-------------------4---3-----7-------------------4-----4-----4--3--7---|
|-4------3p2p0-3p2p0--4---3-----5------3p2p0--------4-----4-----4--3--7---|
|-2-------------------2---1------------------3p2p0--2-222-2-222-2--1--5---|
 HOLD                          HOLD                   PMPM  PMPM

CHORUS RIFF
|-------------------------------------------------------------------------|
|----IA!---------------IA!----------------IA!-CTHULHU!-IA!----------------|
|-----------------------------12------------------------------------------|
|----11-----10-14------11-----10--12------11------10-14------9---8---5----|
|----9------8--12------9----------10------9-------8--12------7---6---3----|
|---HOLD--------------HOLD---------------HOLD-----------------------------|

BREAK RIFF 2x
|-------------------------------------------------------------------------|
|-------------------------------------------------------------------------|
|-------------------------------------------------------------------------|
|----------444----------777-888---------------444-------------------------|
|------333-----444--555--------888--------333-----444--555555-------------|
|--222--------------------------------222---------------------000000------|



2ND VERSE
|-------------------------------------------------------------------------|
|-------------------------------------------------------------------------|
|-------------------------------7-----------------------------------------|
|-4-------------------4---3-----7-------------------4-----4-----4--3--7---|
|-4------3p2p0-3p2p0--4---3-----5------3p2p0--------4-----4-----4--3--7---|
|-2-------------------2---1------------------3p2p0--2-222-2-222-2--1--5---|
HOLD                           HOLD                   PMPM  PMPM
CTND
|-------------------------------------------------------------------------|
|-------------------------------------------------------------------------|
|-------------------------------------------------------------------------|
|---------4-----4-----4------------------4-----4-3-3-3-3-3-3--------------|
|---------4-----4-----4-----3p2p0-3p2p0--4-----4-3-3-3-3-3-3--------------|
|---------2-222-2-222-2-222--------------2-222-2-1-1-1-1-1-1--------------|
           PMPM  PMPM   PMPM              PMPM
CTND
|-------------------------------------------------------------------------|
|-------------------------------------------------------------------------|
|---------7-----7-----7---------------------------------------------------|
|---------7-----7-----7------------------4-----4-----3-3-3--3-7-5---------|
|---------5-555-5-555-5-555-3p2p0--------4-----4-----3-3-3--3-7-3---------|
|---------------------------------3p2p0--2-222-2-222-1-1-1--1-5-----------|
            PMPM PMPM  PMPM               PMPM  PMPM

2ND CHORUS 2x
|-------------------------------------------------------------------------|
|----IA!---------------IA!----------------IA!-CTHULHU!-IA!----------------|
|-----------------------------12------------------------------------------|
|----11-----10-14------11-----10--12------11------10-14------9---8---5----|
|----9------8--12------9----------10------9-------8--12------7---6---3----|
|---HOLD--------------HOLD---------------HOLD-----------------------------|
    
2ND BREAK 2x
|-------------------------------------------------------------------------|
|-------------------------------------------------------------------------|
|-------------------------------------------------------------------------|
|----------444----------777-888---------------444-------------------------|
|------333-----444--555--------888--------333-----444--555555-------------|
|--222--------------------------------222---------------------000000------|


BREAK BEFORE SOLO
|-------------------------------------------------------------------------|
|-------------------------------------------------------------------------|
|-------------------------------------------------------------------------|
|-----4-----4-----4------------------4-----4-----4------------------------|
|-----4-----4-----4-----3p2p0-3p2p0--4-----4-----4-----3p2p0-3p2p0--------|
|-----2-222-2-222-2-222--------------2-222-2-222-2-222--------------------|
CTND
|-------------------------------------------------------------------------|
|-------------------------------------------------------------------------|
|-------------------------------------------------------------------------|
|-----4-----4-----4------------------4-----4------3-3-3--3-7-5------------|
|-----4-----4-----4-----3p2p0-3p2p0--4-----4------3-3-3--3-7-3------------|
|-----2-222-2-222-2-222--------------2-222-2-222--1-1-1--1-5--------------|

FIRST SOLO (2:25)
|-------------------------------------------------------------------------|
|-7-------2----1--------------------------------14-17p14-17p14-17p14-17b~~|
|-9b11~~~~4b6~~3b5~~~---/14~~~~~13h14h16-16b18~~---------------------FULL-|
|---------------------------------------GRADUAL----------------------BEND-|
|--------------------------------------BEND-THEN--------------------------|
|---------------------------------------RELEASE---------------------------|

SECOND SOLO  (2:37)
|------14-----------------------------------------------------------------|
|------17b19~~~~~~(14)-14h17p14--14h17p14--14h17p14-----------------------|
|------------------------------16--------16--------16--16b18~~~~~---------|
|-------------------------------------------------------------------------|
|-------------------------------------------------------------------------|
|-------------------------------------------------------------------------|

|-------------------------------------------------------------------------|
|-------------------------------------------------------------------------|
|------14h16p14-13h14p13--13-------13h14--14h16p14p13-14p13---------------|
|-----------------------16----14h16-------------------------14~~~---------|
|-------------------------------------------------------------------------|
|-------------------------------------------------------------------------|

|-----------------------------------------------------17b19~~~--17b20~~~--|
|-----------------------------------------------------FULL------BEND-UP---|
|--/161616161616~~~-17p16p14-16h17p16p14-16h17p16p14--BEND------ANOTHER---|
|----------------------------------------------------------------HALF-----|
|----------------------------------------------------------------STEP-----|
|-------------------------------------------------------------------------|

1ST SOLO RYTHM
|-------------------------------------------------------------------------|
|-------------------------------------------------------------------------|
|-------------------------------------------------------------------------|
|---------4-----4-----4------------------4-----4-----3-----3--------------|
|---------4-----4-----4-----3p2p0-3p2p0--4-----4-----3-----3--------------|
|---------2-222-2-222-2-222--------------2-222-2-222-1-111-1-111----------|
           PMPM  PMPM   PMPM              PMPM   PMPM  PMPM  PMPM

|-------------------------------------------------------------------------|
|-------------------------------------------------------------------------|
|---------7-----7-----7---------------------------------------------------|
|---------7-----7-----7------------------4-----4-----3-3-3-3-3-3----------|
|---------5-555-5-555-5-555-3p2p0--------4-----4-----3-3-3-3-3-3----------|
|----------PMPM---PMPM--PMPM------3p2p0--2-222-2-222-1-1-1-1-1-1----------|
                                          PMPM  PMPM

2ND SOLO RYTHM
|-------------------------------------------------------------------------|
|----IA!---------------IA!----------------IA!-CTHULHU!-IA!----------------|
|-----------------------------12------------------------------------------|
|----11-----10-14------11-----10--12------11------10-14------9---8---5----|
|----9------8--12------9----------10------9-------8--12------7---6---3----|
|---HOLD--------------HOLD---------------HOLD-----------------------------|



3RD CHORUS  2X
|-------------------------------------------------------------------------|
|----IA!---------------IA!----------------IA!-CTHULHU!-IA!----------------|
|-----------------------------12------------------------------------------|
|----11-----10-14------11-----10--12------11------10-14------9---8---5----|
|----9------8--12------9----------10------9-------8--12------7---6---3----|
|---HOLD--------------HOLD---------------HOLD-----------------------------|


BREAK RIFF 2x
|-------------------------------------------------------------------------|
|-------------------------------------------------------------------------|
|-------------------------------------------------------------------------|
|----------444----------777-888---------------444-------------------------|
|------333-----444--555--------888--------333-----444--555555-------------|
|--222--------------------------------222---------------------000000------|


OUTRO 2x PLAY TWICE AS FAST
|-------------------------------------------------------------------------|
|-------------------------------------------------------------------------|
|-------------------------------------------------------------------------|
|----------444----------777-888---------------444-------------------------|
|------333-----444--555--------888--------333-----444--555555-------------|
|--222--------------------------------222---------------------000000------|

 END
|-------------------------------------------------------------------------|
|-------------------------------------------------------------------------|
|-------------------------------------------------------------------------|
|--4----------------------------------------------------------------------|
|--4----------------------------------------------------------------------|
|--2----------------------------------------------------------------------|
Добавлено: 15.07.2013
Вам также может быть интересно:
Другие материалы по этой песне:
  • Аккорды и текст

Страница создана 15.07.2013
http://primanota.ru/death-breath/his-protoplasmic-worship-chords.htm
Привет, Гость.
Предлагаем пройти революционный курс по гитаре.
Подарок от PrimaNota.Ru, забирай!