PrimaNota.ru - самый крупный в мире бесплатный архив песенных текстов, аккордов, табулатур и нот


Death Ape Disco - Mars - бас-таба, видео

Регистрация Запомнить меня
Войти через:  Facebook Google Twitter Vk Yandex Mail.ru

Death Ape Disco - Mars - бас-таба, видео

Печатать
Просмотров: 69
MARS (Bassline)
By
DEATH APE DISCO
From
SUPERVOLCANO (2013)

http://deathapedisco.bandcamp.com/

Gtr 1 (C# G# C# F#)
Whole instrument half step down bottom string down 1 step further

Link to playthrough (if some sections are different, follow the TAB!
http://www.youtube.com/watch?v=nTZt_3uiPJQ
http://www.youtube.com/watch?v=a2D8kW2uR0w
http://www.youtube.com/watch?v=3GEbTOsX6iU
http://www.youtube.com/watch?v=uBTj2jTiRXU

Bass fills with drum crashes
||---------------------------------------------------------------------|
||---------------------------------------------------------------------|
||---------------------------------------------------------------------|
||------------------------------|-3h5-5-5-5b1/4-5-3---0-3---6-5-3------|

||----------------------------------------------------------------------|
||----------------------------------------------------------------------|
||----------------------------------------------------------------------|
||-0-0-----|-0----0-|--|-0-0----|-3h5-5-5-5b1/4-5-3---0h3p0-6p0h3h5-----|

RIFF 1 FULL BAND
||--------------------------------------------------------------------------------|
||--------------------------------------------------------------------------------|
||--------------------------------------------------------------------------------|
||-0---0-0-|-3p2p0-3p|2p0-3-2-|-6-6-6-6-|-0---0-0-|-3p2p0-3p|2p0-3-2-|-6--6--6----|

||--------------------------------------------------------------------------------|
||--------------------------------------------------------------------------------|
||--------------------------------------------------------------------------------|
||-0---0-0-|-3p2p0-3p|2p0-3-2-|-6-6-6-6-|-3h5-5-5-|5b1/4-5-3-|---0-3--|-6-5-3-----|

||--------------------------------------------------------------------------------|
||--------------------------------------------------------------------------------|
||--------------------------------------------------------------------------------|
||-0---0-0-|-3p2p0-3p|2p0-3-2-|-6-6-6-6-|-0---0-0-|-3p2p0-3p|2p0-3-2-|-6--6--6----|

||--------------------------------------------------------------------------------|
||--------------------------------------------------------------------------------|
||--------------------------------------------------------------------------------|
||-0---0-0-|-3p2p0-3p|2p0-3-2-|-6-6-6-6-|-3-5-5-5-|5b1/4-5-3-|---0h3p0-|-6--5--3--|

                                       triplet feel

ONE GUITAR GROOVE RIFF
||-----------------------------------------------------------------------------|
||-----------------------------------------------------------------------------|
||-----------------------------------------------------------------------------|
||-0---------------------------10--11--|-12sldown------------------------------|

BAND IN (FOLLOW THE TAB)
||-------------------------------------------------|
||-------------------------------------------------|
||----------------------------------|-8------------|
||-12--12-|-10h11h12-12-12-|--10--12-----10--11----|

||-------------------------------------------------|
||-------------------------------------------------|
||-----------------------------------11--10--8-----|
||-12--12-|-10h11h12-12-12-|--10--12---------------|

||-------------------------------------------------|
||-------------------------------------------------|
||----------------------------------|-8------------|
||-12--12-|-10h11h12-12-12-|--10--12-----10--11----|

||--------------------------------------------------|
||--------------------------------------------------|
||---------------------------11-10-8-11-10-8--------|
||-12--12-|-10h11h12-12-12-|------------------------|
X2

VERSE RIFF
||----------------------------------------------------------------|
||----------------------------------------------------------------|
||-----------------------------------------------5-----3----------|
||-12sl0--7-6-5---0--3-3---0h|3p0---0h3p0-3h5h6---6p5---5p3p0-----|

||--------------------------------------------------------------------|
||--------------------------------------------------------------------|
||-----------------------------------------------5-----3slideupneck---|
||-12sl0--7-6-5---0--3-3---3h|5p0---0h3p0-3h5h6---6p5-----------------|
X5
THEN
||----------------------------------------------------------------|
||----------------------------------------------------------------|
||-----------------------------------------------5-----3----------|
||-12sl0--7-6-5---0--3-3---0h|3p0---0h3p0-3h5h6---6p5---5p3p0-----|

||----------------------------------------------------------------|
||----------------------------------------------------------------|
||----------------------------------------------------------------|
||-3p0-7-6-5-0h3p0-7p0-6p0-5p0h3h5-0------------------------------|
                                                                  staccato

PRE-CHORUS RIFF
||-----------------------------------------------------------------------------|
||-----------------------------------------------------------------------------|
||-----------------------------------------------------------------------------|
||-7---7-8---8-9---9-10---10---11---11-|-7---7-8---8-9---9-10---10-11---12-----|

||----------------------------------------------------------------------------------|
||----------------------------------------------------------------------------------|
||------------------------------------------------------------------------7-7-7-7---|
||-7-7-7-8-8-8-9-9-9-10-10-10-11-11-11-11-|-7-7-7-8-8-8-9-9-9-10-10-10--------------|

CHORUS
||-----------------------------------------------------------------------|
||-----------------------------------------------------------------------|
||-5-3-5--------5-3-|5------|5-3-5--|-3---5-3-|5-------|-5-3-5-5-8-8-5---|
||--------|-0------------0-------------------------0---------------------|

||----------------------------------------------------------------|
||----------------------------------------------------------------|
||----------------------------------------------------------------|
||-slupto10----10----5----5----5--------|-8---7---5---6---5--3----|

||-----------------------------------------------------------------------|
||-----------------------------------------------------------------------|
||-5-3-5--------5-3-|5------|5-3-5--|-3---5-3-|5-------|-5-3-5-5-8-8-5---|
||--------|-0------------0-------------------------0---------------------|

||------------------------------------------------------------------|
||------------------------------------------------------------------|
||------------------------------------------------------------------|
||-slupto10----10sl----5----5----5-------|-8---7---10---6---5--3----|

SMALL BRIDGE
||------------------------------------------------------------------------------------|
||------------------------------------------------------------------------------------|
||------------------------------------------------------------------------------------|
||-6p0-6p0--|--6p0-6p|0---6p0|6p0-10p0-|10p0-10p0--|--10p0-10p|0---10p0-|10p0-10p0----|

SOLO WITH HALF OF RIFF 1 FULL BAND
||--------------------------------------------------------------------------------|
||--------------------------------------------------------------------------------|
||--------------------------------------------------------------------------------|
||-0---0-0-|-3p2p0-3p|2p0-3-2-|-6-6-6-6-|-0---0-0-|-3p2p0-3p|2p0-3-2-|-6--6--6----|

||--------------------------------------------------------------------------------|
||--------------------------------------------------------------------------------|
||--------------------------------------------------------------------------------|
||-0---0-0-|-3p2p0-3p|2p0-3-2-|-6-6-6-6-|-3h5-5-5-|5b1/4-5-3-|---0-3--|-6-5-3-----|

BAND IN RIFF (AGAIN FOLLOW THE TAB)
||-------------------------------------------------|
||-------------------------------------------------|
||----------------------------------|-8------------|
||-12--12-|-10h11h12-12-12-|--10--12-----10--11----|

||-------------------------------------------------|
||-------------------------------------------------|
||-----------------------------------11--10--8-----|
||-12--12-|-10h11h12-12-12-|--10--12---------------|

||-------------------------------------------------|
||-------------------------------------------------|
||----------------------------------|-8------------|
||-12--12-|-10h11h12-12-12-|--10--12-----10--11----|

||--------------------------------------------------|
||--------------------------------------------------|
||---------------------------11-10-8-11-10-8--------|
||-12--12-|-10h11h12-12-12-|------------------------|
X2

VERSE RIFF
||----------------------------------------------------------------|
||----------------------------------------------------------------|
||-----------------------------------------------5-----3----------|
||-12sl0--7-6-5---0--3-3---0h|3p0---0h3p0-3h5h6---6p5---5p3p0-----|

||--------------------------------------------------------------------|
||--------------------------------------------------------------------|
||-----------------------------------------------5-----3slideupneck---|
||-12sl0--7-6-5---0--3-3---3h|5p0---0h3p0-3h5h6---6p5-----------------|
X4

HEAVY HALFTIME RIFF (LISTEN TO RECORD FOR TIMING) 4/4
||---------------------------------------------------------------------------------|
||---------------------------------------------------------------------------------|
||---------------------------------------------------------------------------------|
||-3---0--0--5--0--0--3---0--3--0--5--0--|3---0--0--7--0--0--3--0--5--0--7--0------|

||---------------------------------------------------------------------------------|
||---------------------------------------------------------------------------------|
||---------------------------------------------------------------------------------|
||-5---0--0--3--0--0--5---0--3--0--5--0--|3---0--0--7--0--0--3--0--5--0--6--0------|

PRE-CHORUS RIFF
||-----------------------------------------------------------------------------|
||-----------------------------------------------------------------------------|
||-----------------------------------------------------------------------------|
||-7---7-8---8-9---9-10---10---11---11-|-7---7-8---8-9---9-10---10-11---12-----|

||----------------------------------------------------------------------------------|
||----------------------------------------------------------------------------------|
||------------------------------------------------------------------------7-7-7-7---|
||-7-7-7-8-8-8-9-9-9-10-10-10-11-11-11-11-|-7-7-7-8-8-8-9-9-9-10-10-10--------------|

CHORUS
||-----------------------------------------------------------------------|
||-----------------------------------------------------------------------|
||-5-3-5--------5-3-|5------|5-3-5--|-3---5-3-|5-------|-5-3-5-5-8-8-5---|
||--------|-0------------0-------------------------0---------------------|

||----------------------------------------------------------------|
||----------------------------------------------------------------|
||----------------------------------------------------------------|
||-slupto10----10----5----5----5--------|-8---7---5---6---5--3----|

||-----------------------------------------------------------------------|
||-----------------------------------------------------------------------|
||-5-3-5--------5-3-|5------|5-3-5--|-3---5-3-|5-------|-5-3-5-5-8-8-5---|
||--------|-0------------0-------------------------0---------------------|

||------------------------------------------------------------------|
||------------------------------------------------------------------|
||------------------------------------------------------------------|
||-slupto10----10sl----5----5----5-------|-8---7---10---6---5--3----|

PSYCHO RIFF (DROP OUT WHERE APPROPRIATE, FOLLOW THE TAB) 3 BARS 4/4 1 BAR 2/4
||------------------------------------------------------------------------------------|
||------------------------------------------------------------------------------------|
||------------------------------------------------------------------------------------|
||-6p0-6p0--|--6p0-6p|0---6p0|6p0-10p0-|10p0-10p0--|--10p0-10p|0---10p9p7-12sl-5p0----|

||---------------------------------------------------------------|
||---------------------------------------------------------------|
||---------------------------------------------------------------|
||-6p0-6p0--|--6p0-6p|0---6p0|6p0-10p0-|10p0-10p0--|-12sl-5p0----|

||------------------------------------------------------------------------------------|
||------------------------------------------------------------------------------------|
||------------------------------------------------------------------------------------|
||-6p0-6p0--|--6p0-6p|0---6p0|6p0-10p0-|10p0-10p0--|--10p0-10p|0---10p9p7-12sl-5p0----|

||-------------------------------------------------------------|
||-------------------------------------------------------------|
||-------------------------------------------------------------|
||-6p0-6p0--|--6p0-6p|0---6p0|6p0-10p0-|9p0-8p0--|-5p0-7p0-----|
                                                                        (SILENT FIRST 
TIME THROUGH)
X3

SOLO (VARIATION ON BAND IN RIFF) 3 BARS 4/4 1 BAR 2/4
||---------------------------------------------------------------------------------|
||--------------------0------------------------------------------------------------|
||---------------------------------|1--------------------------------1-----0-------|
||-2---2-2--|0h1h2-2----|---0--2-----2--1--|2---2-2--|0h1h2-2-2--|------2----2--1--|

||------------------------------------------------------------------|
||--------------------0---------------------------------------------|
||---------------------------------|1-------------------------------|
||-2---2-2--|0h1h2-2----|---0--2-----2--1--|2---2-2--|0h1h2-2-3-----|
X4

HARMONY SECTION
||--------------------------------------------------------------------|
||----------|5---------5----|5----------------|5---------5---|5-------|
||--------------------------------------------------------------------|
||-5---5-5-----5-5-|-----5-----5---|-5---5-5-----5-5-|----5----5------|

||--------------------------------------------------------------------------|
||--------------------------------------------------------------------------|
||---------------5-|---------3-------|---------------5-|---------3----------|
||-0--0--|-4h5h7------0h4h5---6p5p4-|-0--0--|-4h5h7------0h4h5---6p5p4------|

||-------------------------------------------------------------|
||------------|10-----------10-----------9-----------|8--------|
||-------------------------------------------------------------|
||-10---10--------10-|--10----10-|-9-9-----8-|---8-------8-----|

||--------------------------------------------------------------------------|
||--------------------------------------------------------------------------|
||---------------5-|---------3-------|---------------5-|---------3----------|
||-0--0--|-4h5h7------0h4h5---6p5p4-|-0--0--|-4h5h7------0h4h5---6p5p4------|

||----------------------------------------------------------|
||----------------------------------------------------------|
||----------------------------------------------------------|
||-10---10-10-|-13-12-10-13-|-12-10-13-12-|-10-13-12-10-----|

||----------------------------------------------------------|
||----------------------------------------------------------|
||----------------------------------------------------------|
||-10---10-10-|-13-12-10-13-|-12-10-13-12-|-10-13-12-10-----|


||--------------------------------------------------------------------------|
||--------------------------------------------------------------------------|
||---------------5-|---------3-------|---------------5-|---------3----------|
||-0--0--|-4h5h7------0h4h5---6p5p4-|-0--0--|-4h5h7------0h4h5---6p5p4------|

||-------------------------------------------------------------|
||------------|10-----------10-----------9-----------|8--------|
||-------------------------------------------------------------|
||-10---10--------10-|--10----10-|-9-9-----8-|---8-------8-----|

||-------------------------------------|
||-------------------------------------|
||---------------5-|---------3---------|
||-0--0--|-4h5h7------0h4h5---6p5p4----|

RUN DOWN
||---------------------------------------------|
||-5h6p5-3-5-|3-0------------------------------|
||----------------5h6p5-|3-5-3-----------------|
||-----------------------------5|-5h6p5-3-5----|

OUTRO RIFF LISTEN TO RECORD FOR TIMING
1 ADDITIONAL BEAT IN FIRST HALF 2 ADDITIONAL BEATS IN SECOND HALF
||----------------------------------------------------------------------------|
||----------------------------------------------------------------------------|
||----------------------------------------------------------------------------|
||-3--0--0--5--0--0--3--0--3-0-5-0-|-3--0--0--7--0--0--3--0--5-0-7-0-10-0-----|

||---------------------------------------------------------------------------------|
||---------------------------------------------------------------------------------|
||---------------------------------------------------------------------------------|
||-3--0--0--5--0--0--3--0--3-0-5-0-|-3--0--0--10--0--0--3--0--5-0-7-0-10-0-12sl----|
REPEAT UNTIL THE SUN DIES

\M/
Добавлено: 23.08.2013
Другие материалы по этой песне:
  • Аккорды и текст

Страница создана 23.08.2013
http://primanota.ru/death-ape-disco/mars-chords.htm
Привет, Гость.
Предлагаем пройти революционный курс по гитаре.
Подарок от PrimaNota.Ru, забирай!