PrimaNota.ru - самый крупный в мире бесплатный архив песенных текстов, аккордов, табулатур и нот


Death Ape Disco - Kingdom Of Others - бас-таба, видео

Регистрация Запомнить меня
Войти через:  Facebook Google Twitter Vk Yandex Mail.ru

Death Ape Disco - Kingdom Of Others - бас-таба, видео

Печатать
Просмотров: 73
KINGDOM OF OTHERS (Bassline)
By
DEATH APE DISCO
From
SUPERVOLCANO (2013)

http://deathapedisco.bandcamp.com/

Gtr 1 (C# G# C# F#)
Whole instrument half step down bottom string down 1 step further

Link to playthrough (if some sections are different, follow the TAB!)
http://www.youtube.com/watch?v=X3Ts-d9vxfE

4/4 with 6/8 feel
DRUM FILL

Riff A
||--------------|----------------|-------------|-------------------||
||--------------|----------------|-------------|-------------------||
||-3h5p3--------|-3h5p3---------|-------------|--------------------||
||--------5p3p0-|--------5p3p0--|-3h5-5-5-5-5-|-5h6p5-5p3h5--------||

||--------------|----------------|-------------|-------------------||
||--------------|----------------|-------------|-------------------||
||-3h5p3--------|-3h5p3---------|-------------|-1h3-3-3-3-3--------||
||--------5p3p0-|--------5p3p0--|-3h5-5-5-5-5-|--------------------||

||--------------|----------------|-------------|-------------------||
||--------------|----------------|-------------|-------------------||
||-3h5p3--------|-3h5p3---------|-------------|--------------------||
||--------5p3p0-|--------5p3p0--|-3h5-5-5-5-5-|-5h6p5-5p3h5--------||

||--------------|----------------|-------------|-------------------||
||--------------|----------------|-------------|-------------------||
||-3h5p3--------|-3h5p3---------|-1h3-3-3-3-3-|-3-4-3-3-1-3--------||
||--------5p3p0-|--------5p3p0--|-------------|--------------------||

FIRST VERSE
||--------------|----------------|-------------|--------------------||
||--------------|----------------|-------------|--------------------||
||-3h5-5-5-5-5--|-3h5-5-5-5-5---|-3h5-5-5-5-5-|---------------------||
||--------------|----------------|-------------|-3-5-0-5-3-0--------||

||--------------|----------------|-------------|-------------------||
||--------------|----------------|-------------|-------------------||
||-3h5-5-5-5-5--|-3h5-5-5-5-5---|-3h5-5-5-5-5-|-1-3-3-3-1-3--------||
||--------------|----------------|-------------|-------------------||

||--------------|----------------|-------------|--------------------||
||--------------|----------------|-------------|--------------------||
||-3h5-5-5-5-5--|-3h5-5-5-5-5---|-3h5-5-5-5-5-|---------------------||
||--------------|----------------|-------------|-3-5-0-5-3-0--------||

||--------------|----------------|-------------|-------------------||
||--------------|----------------|-------------|-------------------||
||--------------|----------------|-1-3-3-3-3-3-|-3-4-3-3-1-3-------||
||-3h5-5-3------|-3h5-5-3--------|-------------|-------------------||

SECOND HALF OF FIRST VERSE RIFF A AGAIN
||--------------|----------------|-------------|-------------------||
||--------------|----------------|-------------|-------------------||
||-3h5p3--------|-3h5p3---------|-------------|--------------------||
||--------5p3p0-|--------5p3p0--|-3h5-5-5-5-5-|-5h6p5-5p3h5--------||

||--------------|----------------|-------------|-------------------||
||--------------|----------------|-------------|-------------------||
||-3h5p3--------|-3h5p3---------|-------------|-1h3-3-3-3-3--------||
||--------5p3p0-|--------5p3p0--|-3h5-5-5-5-5-|--------------------||

||--------------|----------------|-------------|-------------------||
||--------------|----------------|-------------|-------------------||
||-3h5p3--------|-3h5p3---------|-------------|--------------------||
||--------5p3p0-|--------5p3p0--|-3h5-5-5-5-5-|-5h6p5-5p3h5--------||

||--------------|----------------|-------------|-------------------||
||--------------|----------------|-------------|-------------------||
||-3h5p3--------|-3h5p3---------|-1h3-3-3-3-3-|-3-4-3-3-1-3--------||
||--------5p3p0-|--------5p3p0--|-------------|--------------------||

CHORUS RIFF
||--------------|----------------|-------------|-------------------||
||--------------|----------------|-------------|-------------------||
||-3-5------5---|----------------|-3-5---------|-5------3----------||
||--------------|-0--0-------0---|---------0---|------0------0-----||

||--------------|----------------|-------------|-----------------||
||--------------|----------------|-------------|-----------------||
||--------------|----------------|-------------|-----------------||
||-3-5----------|-5----------0---|-7-----5-----|3-------5--------||

||--------------|----------------|-------------|-------------------||
||--------------|----------------|-------------|-------------------||
||-3-5------5---|----------------|-3-5---------|-5------3----------||
||--------------|-0--0-------0---|---------0---|------0------0-----||

||--------------|----------------|-------------|-----------------||
||--------------|----------------|-------------|-----------------||
||--------------|----------------|-------------|-----------------||
||-2-3----------|-3----------0---|-2-----------|1----------------||

REPEAT

SOLO
||--------------|----------------|-------------|-------------------||
||--------------|----------------|-------------|-------------------||
||-3h5p3--------|-3h5p3---------|-------------|--------------------||
||--------5p3p0-|--------5p3p0--|-3h5-5-5-5-5-|-5h6p5-5p3h5--------||

||--------------|----------------|-------------|-------------------||
||--------------|----------------|-------------|-------------------||
||-3h5p3--------|-3h5p3---------|-------------|-1h3-3-3-3-3--------||
||--------5p3p0-|--------5p3p0--|-3h5-5-5-5-5-|--------------------||

||--------------|----------------|-------------|-------------------||
||--------------|----------------|-------------|-------------------||
||-3h5p3--------|-3h5p3---------|-------------|--------------------||
||--------5p3p0-|--------5p3p0--|-3h5-5-5-5-5-|-5h6p5-5p3h5--------||

||--------------|----------------|-------------|-------------------||
||--------------|----------------|-------------|-------------------||
||--------------|----------------|-1h3-3-3-3-3-|-3-4-3-3-1-3-------||
||-3h5-5-3------|-3h5-5-3-------|-------------|--------------------||

SECOND VERSE
||--------------|----------------|-------------|--------------------||
||--------------|----------------|-------------|--------------------||
||-3h5-5--------|-3h5-5---------|--------------|--------------------||
||--------0-----|--------0-------|-3h5-5-5-5-5-|-5-6-5-5-3-0--------||

||--------------|----------------|-------------|-------------------||
||--------------|----------------|-------------|-------------------||
||-3h5-5--------|-3h5-5---------|--------------|-1-3-3-3-1-3-------||
||--------0-----|--------0-------|-3h5-5-5-5-5-|-------------------||

||--------------|----------------|-------------|-----------------||
||--------------|----------------|-------------|-----------------||
||-3h5-5--------|-3h5-5---------|--------------|-----------------||
||-------0------|--------0-------|-3h5-5-5-5-5-|-5-6-5-5-3-0-----||

||--------------|----------------|-------------|-------------------||
||--------------|----------------|-------------|-------------------||
||--------------|----------------|-1-3-3-3-3-3-|-3-4-3-3-1-3-------||
||-3h5-5-3------|-3h5-5-3--------|-------------|-------------------||

SECOND HALF OF SECOND VERSE (SAME AS SOLO)
||--------------|----------------|-------------|-------------------||
||--------------|----------------|-------------|-------------------||
||-3h5p3--------|-3h5p3---------|-------------|--------------------||
||--------5p3p0-|--------5p3p0--|-3h5-5-5-5-5-|-5h6p5-5p3h5--------||

||--------------|----------------|-------------|-------------------||
||--------------|----------------|-------------|-------------------||
||-3h5p3--------|-3h5p3---------|-------------|-1h3-3-3-3-3--------||
||--------5p3p0-|--------5p3p0--|-3h5-5-5-5-5-|--------------------||

||--------------|----------------|-------------|-------------------||
||--------------|----------------|-------------|-------------------||
||-3h5p3--------|-3h5p3---------|-------------|--------------------||
||--------5p3p0-|--------5p3p0--|-3h5-5-5-5-5-|-5h6p5-5p3h5--------||

||--------------|----------------|-------------|-------------------||
||--------------|----------------|-------------|-------------------||
||--------------|----------------|-1h3-3-3-3-3-|-3-4-3-3-1-3-------||
||-3h5-5-3------|-3h5-5-3-------|-------------|--------------------||

CHORUS RIFF
||--------------|----------------|-------------|-------------------||
||--------------|----------------|-------------|-------------------||
||-3-5------5---|----------------|-3-5---------|-5------3----------||
||--------------|-0--0-------0---|---------0---|------0------0-----||

||--------------|----------------|-------------|-----------------||
||--------------|----------------|-------------|-----------------||
||--------------|----------------|-------------|-----------------||
||-3-5----------|-5----------0---|-7-----5-----|3-------5--------||

||--------------|----------------|-------------|-------------------||
||--------------|----------------|-------------|-------------------||
||-3-5------5---|----------------|-3-5---------|-5------3----------||
||--------------|-0--0-------0---|---------0---|------0------0-----||

||--------------|----------------|-------------|-----------------||
||--------------|----------------|-------------|-----------------||
||--------------|----------------|-------------|-----------------||
||-2-3----------|-3----------0---|-2-----------|1----------------||

REPEAT

MID-SECTION RIFF (FOLLOW THE TAB NOT THE VIDEO)
||--------------|----------------|-------------|-------------------||
||--------------|----------------|-------------|-------------------||
||--------------|----------------|-------------|-------------------||
||-7-6-5-3---0-|-3--5-----------|-6-5-4-3---0-|-3--5--0------------||

||--------------|----------------|-------------|-------------------||
||--------------|----------------|-------------|-------------------||
||--------------|----------------|-------------|-------------------||
||-7-6-5-3---0-|-3--5---------0-|-------------|-5--5--5------------||

||--------------|----------------|-------------|-------------------||
||--------------|----------------|-------------|-------------------||
||--------------|----------------|-------------|-------------------||
||-7-6-5-3---0-|-3--5-----------|-6-5-4-3---0-|-3--5--0------------||

||--------------|----------------|-------------|-------------------||
||--------------|----------------|-------------|-------------------||
||--------------|----------------|-------------|-------------------||
||-7-6-5-3---0-|-3--5---------0-|-------------|-5--5--5------------||

SLIGHT VARIATION
||--------------|----------------|-------------|-------------------||
||--------------|----------------|-------------|-------------------||
||--------------|----------------|-------------|-------------------||
||-7-6-5-3-3-0-|-3--5-----------|-6-5-4-3---0-|-3--5--0------------||

||--------------|----------------|-------------|-------------------||
||--------------|----------------|-------------|-------------------||
||--------------|----------------|-------------|-------------------||
||-7-6-5-3-3-0-|-3--5---------0-|-------------|-5--5--5------------||

||--------------|----------------|-------------|-------------------||
||--------------|----------------|-------------|-------------------||
||--------------|----------------|-------------|-------------------||
||-7-6-5-3-3-0-|-3--5-----------|-6-5-4-3---0-|-3--5--0------------||

||--------------|----------------|-------------|-------------------||
||--------------|----------------|-------------|-------------------||
||--------------|----------------|-------------|-------------------||
||-7-6-5-3-3-0-|-3--5---------0-|-------------|-5--5--5------------||

OUTRO RIFF 1 (SOME VARIATION FROM VIDEO, WHERE TOP LINE IS REPEATED, BASS CAN 
FOLLOW GUITARS MORE) 3/4
||--------------|----------------|-------------|-----------------||
||--------------|----------------|-------------|-----------------||
||--------------|----------------|-------------|-----------------||
||-3------------|-2--------------|-7--6--0----|-12---------------||

||--------------|----------------|-------------|-----------------||
||--------------|----------------|-------------|-----------------||
||--------------|----------------|-------------|-----------------||
||-3------------|-2--------------|-7--6--0----|-0------12sl0-----||

||--------------|----------------|-------------|-------------------||
||--------------|----------------|-------------|-------------------||
||--------------|----------------|-------------|-------------------||
||-3------------|-2--------------|-7--6--0----|-12-----------------||

||--------------|----------------|-------------|-------------------||
||--------------|----------------|-------------|-------------------||
||--------------|----------------|-------------|-------------------||
||-3------------|-2--------------|-7--6--0----|-2--3--0------------||

STRAIGHT DRUM BEAT ENTERS
||--------------|----------------|-------------|-------------------||
||--------------|----------------|-------------|-------------------||
||--------------|----------------|-------------|-------------------||
||-3----3-3-3-3-|-2----2-2-2-2--|-7--6--0-----|-12-----------------||

||--------------|----------------|-------------|-------------------||
||--------------|----------------|-------------|-------------------||
||--------------|----------------|-------------|-------------------||
||-3----3-3-3-3-|-2----2-2-2-2--|-7--6--0-----|-0-----12sl0--------||

||--------------|----------------|-------------|-----------------||
||--------------|----------------|-------------|-----------------||
||--------------|----------------|-------------|-----------------||
||-3----3-3-3-3-|-2----2-2-2-2--|-7--6--0-----|12----------------||

||--------------|----------------|-------------|-------------------||
||--------------|----------------|-------------|-------------------||
||--------------|----------------|-------------|-------------------||
||-3----3-3-3-3-|-2----2-2-2-2--|-7--6--0----|-2--3--0-------------||

x2

OUTRO PART 2
||--------------------|--------------------|-------------------|---------------------||
||--------------------|--------------------|-------------------|-12-12-12-12-12-12---||
||--------------------|-12-12-12-12-12-12-|-------------------|----------------------||
||-10-10-10-10-10-10-|-------------------|-12-12-12-12-12-12-|-----------------------||

||--------------------|--------------------|-------------|--------------||
||--------------------|--------------------|-------------|--------------||
||--------------------|-12-12-12-12-12-12-|-11--10------|---------------||
||-10-10-10-10-10-10-|--------------------|----------12-|-14--15--14----||

x 4

||-------------------|-------------------|-------------------|------------------------||
||-------------------|-------------------|-------------------|------------------------||
||-------------------|-------------------|-------------------|------------------------||
||-12--sliiiiide---dooown---the---neeeck-------|----------------|-------------------|-||

\m/
Добавлено: 13.11.2013
Вам также может быть интересно:
Другие материалы по этой песне:
  • Аккорды и текст

Страница создана 13.11.2013
http://primanota.ru/death-ape-disco/kingdom-of-others-chords.htm
Привет, Гость.
Предлагаем пройти революционный курс по гитаре.
Подарок от PrimaNota.Ru, забирай!