PrimaNota.ru - самый крупный в мире бесплатный архив песенных текстов, аккордов, табулатур и нот


Death Ape Disco - 10000 Years - бас-таба, видео

Регистрация Запомнить меня
Войти через:  Facebook Google Twitter Vk Yandex Mail.ru

Death Ape Disco - 10000 Years - бас-таба, видео

Печатать
Просмотров: 63
10,000 YEARS (Bassline)
By
DEATH APE DISCO
From
SUPERVOLCANO (2013)

http://deathapedisco.bandcamp.com/

Gtr 1 (C# G# C# F#)
Whole instrument half step down bottom string down 1 step further

Link to playthrough (if some sections are different, follow the TAB!
http://www.youtube.com/watch?v=t7UfpCQOsDc

4/4 8th notes

TEN THOUSAND
||------------------|------------------|-----------------|--------------------|
||------------------|------------------|-----------------|--------------------|
||------------------|------------------|-----------------|--------------------|
||-6-5-5-5-5-5-5-5-|-5-5-5-5-5-5-5-6-|-6-5-5-5-5-5-5-5-|-5-5-5-5-5-5-5-6------|

||------------------|------------------|------------------|--------------------|
||------------------|------------------|--------------2-2-|-2------------2-2---|
||------------------|------------------|-1-1-1-4-4-4-----|----1-1-1-4-4--------|
||-6-5-5-5-5-5-5-5-|-5-5-5-5-5-4-5-0-|------------------|----------------------|

x 3

3rd TIME ADD THIS ON AT THE END

||------------------|--------------------|
||--------------5-5-|-5------------5-5---|
||-4-4-4-7-7-7-----|----4-4-4-7-7--------|
||------------------|--------------------|

CHORUS AAAANIMALS (WATCH VIDEO FOR TIMING TAB FOR NOTES)
||------------------|------------------|-----------------|--------------------|
||-----3-----3-sl-5--|---5---------5----|-----------------|---------3---------|
||------------------|------------------|-----5--3-5-5----|-----3-5---5-3-5----|
||-3-------3--sl--5--|--------5---------|-0------------0--|--0----------------|

||------------------|------------------|
||-----3-----3-sl-5--|---5------5----5-|
||------------------|------------------|
||-3-------3--sl--5--|--------5--------|

||-----------------------------------|-------------------------------------|
||-----------------------------------|-------------------------------------|
||-----------------------------------|-------------------------------------|
||-0h10h12-0-0-0h10h12--0h10h12--0-|---0---0h8h10h12-2-------3-------------|


||------------------|------------------|-----------------|--------------------|
||-----3-----3-sl-5--|---5---------5---|-----------------|---------3----------|
||------------------|------------------|-----5--3-5-5----|-----3-5---5-3-5----|
||-3-------3--sl--5--|--------5---------|-0------------0--|--0----------------|


||------------------|------------------|------------------|------------------|
||-----3-----3-sl-5--|---5---------5---|------2-------2---|----3-------3-----|
||------------------|------------------|------------------|------------------|
||-3-------3--sl--5--|--------5---------|-2--------2----3-|---------3--------|

SOLO
||------------------|------------------|-----------------|--------------------|
||------------------|------------------|-----------------|--------------------|
||------------------|------------------|-----------------|--------------------|
||-6-5-5-5-5-5-5-5-|-5-5-5-5-5-5-5-6-|-6-5-5-5-5-5-5-5-|-5-5-5-5-5-5-5-6------|

||------------------|------------------|------------------|--------------------|
||------------------|------------------|--------------2-2-|-2------------2-2---|
||------------------|------------------|-1-1-1-4-4-4-----|----1-1-1-4-4--------|
||-6-5-5-5-5-5-5-5-|-5-5-5-5-5-4-5-0-|------------------|----------------------|

YOU WANT SOMETHING PRETTY....
||------------------|------------------|-----------------|--------------------|
||------------------|------------------|-----------------|--------------------|
||------------------|------------------|-----------------|--------------------|
||-6-5-5-5-5-5-5-5-|-5-5-5-5-5-5-5-5-|-5-3-3-3-3-3-3-3-|-3-3-3-3-3-3-3-5------|

||------------------|------------------|-----------------|--------------------|
||------------------|------------------|-----------------|--------------------|
||------------------|------------------|-----------------|--------------------|
||-6-5-5-5-5-5-5-5-|-5-5-5-5-5-4-5-0-|-4-4-4-3-3-3-1-1-|-1-3-3-3-4-4-5-5------|

X4

HEAVY RIFF (FOLLOW THE TAB NOT THE VIDEO)

||------------------|--------------------|
||------------------|--------------------|
||------------------|--------------------|
||-4-5-0-8-7-0-3-4-|-0-3-2-0-1-2-1-0-----|

X4

CHORUS AAAANIMALS (WATCH VIDEO FOR TIMING)
||------------------|------------------|-----------------|--------------------|
||-----3-----3-sl-5--|---5---------5----|-----------------|---------3---------|
||------------------|------------------|-----5--3-5-5----|-----3-5---5-3-5----|
||-3-------3--sl--5--|--------5---------|-0------------0--|--0----------------|

||------------------|------------------|
||-----3-----3-sl-5--|---5------5----5-|
||------------------|------------------|
||-3-------3--sl--5--|--------5--------|

||-----------------------------------|-------------------------------------|
||-----------------------------------|-------------------------------------|
||-----------------------------------|-------------------------------------|
||-0h10h12-0-0-0h10h12--0h10h12--0-|---0---0h8h10h12-2-------3-------------|


||------------------|------------------|-----------------|--------------------|
||-----3-----3-sl-5--|---5---------5---|-----------------|---------3----------|
||------------------|------------------|-----5--3-5-5----|-----3-5---5-3-5----|
||-3-------3--sl--5--|--------5---------|-0------------0--|--0----------------|


||------------------|------------------|------------------|------------------|
||-----3-----3-sl-5--|---5---------5---|------2-------2---|----3-------3-----|
||------------------|------------------|------------------|------------------|
||-3-------3--sl--5--|--------5---------|-2--------2----3-|---------3--------|

GUITAR PLAYS FIRST 7 BEATS OF THIS RIFF SOLO THEN BAND JOINS
7/8 FIRST 7 BARS 8/8 FINAL BAR
||----------------|----------------|-----------------|--------------------|
||----------------|----------------|-----------------|--------------------|
||----------------|----------------|-----------------|--------------------|
||-6--9--12-12---|-6--9--12-12-12-|-9--12--15-15---|-9--12--15-16-15------|

||----------------|----------------|-----------------|--------------------------|
||----------------|----------------|-----------------|--------------------------|
||----------------|----------------|-----------------|--------------------------|
||-6--9--12-12---|-6--9--12-12-12-|-9--12--15-15---|-9--12--15-16-15-12-15------|

X2

||------------------------|------------------------|
||------------------------|------------------------|
||------------------------|------------------------|
||-15-16-15-0-12-15-12-0-|-11-12-11-8---0--8-------|

||------------------------|------------------------|
||------------------------|------------------------|
||------------------------|------------------------|
||-15-16-15-0-12-15-12-0-|-11-12-11-8---0--8-------|

||----------------------|--------------------|
||----------------------|--------------------|
||----------------------|--------------------|
||-11-12-11-0-8-11-8-0-|-7-8-7-4-----4-------|

||----------------------|--------------------|
||----------------------|--------------------|
||----------------------|--------------------|
||-11-12-11-0-8-11-8-0-|-7-8-7-4-----4-------|

X2

FINAL CHORUS (WATCH VIDEO FOR TIMING)
||------------------|------------------|-----------------|--------------------|
||------------------|------------------|-----------------|---------3----------|
||------------------|------------------|-----5--3-5-5----|-----3-5---5-3-5----|
||-3-------------5--|------------------|-0------------0--|--0-----------------|

||------------------|------------------|
||-----3-----3-sl-5--|---5------5----5-|
||------------------|------------------|
||-3-------3--sl--5--|--------5--------|

||-----------------------------------|-------------------------------------|
||-----------------------------------|-------------------------------------|
||-----------------------------------|-------------------------------------|
||-0h10h12-0-0-0h10h12--0h10h12--0-|---0---0h8h10h12-2-------3-------------|


||------------------|------------------|-----------------|--------------------|
||-----3-----3-sl-5--|---5---------5---|-----------------|---------3----------|
||------------------|------------------|-----5--3-5-5----|-----3-5---5-3-5----|
||-3-------3--sl--5--|--------5---------|-0------------0--|--0----------------|


||------------------|------------------|------------------|------------------|
||-----3-----3-sl-5--|---5---------5---|------2-------2---|----3-------3-----|
||------------------|------------------|------------------|------------------|
||-3-------3--sl--5--|--------5---------|-2--------2----3-|---------3--------|

LAST BIT OF FINAL CHORUS

|------------------|--------------------|
|------3-------3---|----5-------5-------|
|------------------|--------------------|
|-3--------3----5-|---------5-----------|

||-----------------------------------|-------------------------------------|
||-----------------------------------|-------------------------------------|
||-----------------------------------|-------------------------------------|
||-0h10h12-0-0-0h10h12--0h10h12--0-|---0---0h8h10h12-0---------------------|

\m/
Добавлено: 02.11.2013
Другие материалы по этой песне:
  • Аккорды и текст

Страница создана 02.11.2013
http://primanota.ru/death-ape-disco/10000-years-chords.htm
Привет, Гость.
Предлагаем пройти революционный курс по гитаре.
Подарок от PrimaNota.Ru, забирай!