PrimaNota.ru - самый крупный в мире бесплатный архив песенных текстов, аккордов, табулатур и нот


Death Angel - The Devil Incarnate - текст песни, таба, видео

Регистрация Запомнить меня
Войти через:  Facebook Google Twitter Vk Yandex Mail.ru

Death Angel - The Devil Incarnate - текст песни, таба, видео

Печатать
Просмотров: 200
Intro
  Q=150
 4/4
  Gtr I
  PM------------------------------------------------------------------|
|-----------------|-----------------|-----------------|------------------|
|-----------------|-----------------|-----------------|------------------|
|-----------------|-----------------|-----------------|------------------|
|-----------------|-----------------|-----------------|------------------|
|-----------------|-----------------|-----------------|------------------|
|-3-3-3-3-3-3-3-3-|-3-3-3-3-3-3-3-3-|-3-3-3-3-3-3-3-3-|-3-3-3-3-3-3-3-3--|
|
| Gtr II
|                                     PM------------------------------|
|-----------------|-----------------|-----------------|------------------|
|-----------------|-----------------|-----------------|------------------|
|-----------------|-----------------|-----------------|------------------|
|-----------------|-----------------|-----------------|------------------|
|-----------------|-----------------|-----------------|------------------|
|-----------------|-----------------|-3-3-3-3-3-3-3-3-|-3-3-3-3-3-3-3-3--|


   Pre-Verse
    Gtr I
    PM------------------------------------------------------------|
||------------------|-----------------|-----------------|------------------|
||o-----------------|-----------------|-----------------|------------------|
||------------------|-----------------|-----------------|------------------|
||------------------|-----------------|-----------------|------------------|
||o-------------6---|-5-----------6---|-5-----------6---|-5---------8------|
||--3-3-6-3-5-3---3-|---3-6-3-5-3---3-|---3-6-3-5-3---3-|---3-6-3-6-6------|
|
|   Gtr II
|   PM------------------------------------------------------------------|
||------------------|-----------------|-----------------|------------------|
||o-----------------|-----------------|-----------------|------------------|
||------------------|-----------------|-----------------|------------------|
||------------------|-----------------|-----------------|------------------|
||o-----------------|-----------------|-----------------|------------------|
||--3-3-3-3-3-3-3-3-|-3-3-3-3-3-3-3-3-|-3-3-3-3-3-3-3-3-|-3-3-3-3-3-3-3-3--|


  PM------------------------------------------------------------|
                                                                         6x
|-----------------|-----------------|-----------------|------------------||
|-----------------|-----------------|-----------------|-----------------o||
|-----------------|-----------------|-----------------|------------------||
|-----------------|-----------------|-----------------|------------------||
|-------------6---|-5-----------6---|-5-----------6---|-5---------3-----o||
|-3-3-6-3-5-3---3-|---3-6-3-5-3---3-|---3-6-3-5-3---3-|---3-6-3-6-1------||
|
| PM------------------------------------------------------------------|
|                                                                        6x
|-----------------|-----------------|-----------------|------------------||
|-----------------|-----------------|-----------------|-----------------o||
|-----------------|-----------------|-----------------|------------------||
|-----------------|-----------------|-----------------|------------------||
|-----------------|-----------------|-----------------|-----------------o||
|-3-3-3-3-3-3-3-3-|-3-3-3-3-3-3-3-3-|-3-3-3-3-3-3-3-3-|-3-3-3-3-3-3-3-3--||


   Verse
    Gtrs I, II
||------------------|-----------------|-----------------|----------------|
||o-----------------|-----------------|-----------------|----------------|
||------------------|-----------------|-----------------|----------------|
||------------------|-----------------|-----------------|----------------|
||o-------------6---|-5-3---------6---|-5-----------6---|-5-3-------8----|
||--3-3-6-3-5-3---3-|-----6-3-5-3---3-|---3-6-3-5-3---3-|-----6-3-6-6----|


  Gtrs I, II
|-----------------|-----------------|-----------------|----------------||
|-----------------|-----------------|-----------------|---------------o||
|-----------------|-----------------|-----------------|----------------||
|-----------------|-----------------|-----------------|----------------||
|-------------6---|-5-----------6---|-5-----------6---|-5---------3---o||
|-3-3-6-3-5-3---3-|---3-6-3-5-3---3-|---3-6-3-5-3---3-|---3-6-3-6-1----||


 Bridge
  Gtr I
  PM------------------------------------------------------------|
|-----------------|-----------------|-----------------|-----------------|
|-----------------|-----------------|-----------------|-----------------|
|-----------------|-----------------|-----------------|-----------------|
|-----------------|-----------------|-----------------|-----------------|
|-------------6---|-5-----------6---|-5-----------6---|-5---------8-----|
|-3-3-6-3-5-3---3-|---3-6-3-5-3---3-|---3-6-3-5-3---3-|---3-6-3-6-6-----|
|
| Gtr II
| PM------------------------------------------------------------------|
|-----------------|-----------------|-----------------|-----------------|
|-----------------|-----------------|-----------------|-----------------|
|-----------------|-----------------|-----------------|-----------------|
|-----------------|-----------------|-----------------|-----------------|
|-----------------|-----------------|-----------------|-----------------|
|-3-3-3-3-3-3-3-3-|-3-3-3-3-3-3-3-3-|-3-3-3-3-3-3-3-3-|-3-3-3-3-3-3-3-3-|


   Pre-Verse
    Gtr I
    PM------------------------------------------------------------|
||------------------|-----------------|-----------------|------------------|
||o-----------------|-----------------|-----------------|------------------|
||------------------|-----------------|-----------------|------------------|
||------------------|-----------------|-----------------|------------------|
||o-------------6---|-5-----------6---|-5-----------6---|-5---------8------|
||--3-3-6-3-5-3---3-|---3-6-3-5-3---3-|---3-6-3-5-3---3-|---3-6-3-6-6------|
|
|   Gtr II
|   PM------------------------------------------------------------------|
||------------------|-----------------|-----------------|------------------|
||o-----------------|-----------------|-----------------|------------------|
||------------------|-----------------|-----------------|------------------|
||------------------|-----------------|-----------------|------------------|
||o-----------------|-----------------|-----------------|------------------|
||--3-3-3-3-3-3-3-3-|-3-3-3-3-3-3-3-3-|-3-3-3-3-3-3-3-3-|-3-3-3-3-3-3-3-3--|


  Gtr I
  PM------------------------------------------------------------|
|-----------------|-----------------|-----------------|------------------||
|-----------------|-----------------|-----------------|-----------------o||
|-----------------|-----------------|-----------------|------------------||
|-----------------|-----------------|-----------------|------------------||
|-------------6---|-5-----------6---|-5-----------6---|-5---------3-----o||
|-3-3-6-3-5-3---3-|---3-6-3-5-3---3-|---3-6-3-5-3---3-|---3-6-3-6-1------||
|
| Gtr II
| PM------------------------------------------------------------------|
|-----------------|-----------------|-----------------|------------------||
|-----------------|-----------------|-----------------|-----------------o||
|-----------------|-----------------|-----------------|------------------||
|-----------------|-----------------|-----------------|------------------||
|-----------------|-----------------|-----------------|-----------------o||
|-3-3-3-3-3-3-3-3-|-3-3-3-3-3-3-3-3-|-3-3-3-3-3-3-3-3-|-3-3-3-3-3-3-3-3--||


   Verse
    Gtrs I, II
||------------------|-----------------|-----------------|----------------|
||o-----------------|-----------------|-----------------|----------------|
||------------------|-----------------|-----------------|----------------|
||------------------|-----------------|-----------------|----------------|
||o-------------6---|-5-3---------6---|-5-----------6---|-5-3-------8----|
||--3-3-6-3-5-3---3-|-----6-3-5-3---3-|---3-6-3-5-3---3-|-----6-3-6-6----|


  Gtrs I, II
|-----------------|-----------------|-----------------|----------------||
|-----------------|-----------------|-----------------|---------------o||
|-----------------|-----------------|-----------------|----------------||
|-----------------|-----------------|-----------------|----------------||
|-------------6---|-5-----------6---|-5-----------6---|-5---------3---o||
|-3-3-6-3-5-3---3-|---3-6-3-5-3---3-|---3-6-3-5-3---3-|---3-6-3-6-1----||


   Chorus
    Gtrs I, II
||---------------|--------------|--------------|----------------||
||o--------------|--------------|--------------|---------------o||
||---------------|--------------|--------------|----------------||
||---------------|--------------|--------------|----------------||
||o----------6---|----------3---|----------6---|----------3----o||
||--3-3-6-3--4---|-3-3-4-2--1---|-3-3-6-3--4---|-3-3-4-2--1-----||


   Guitar Solo
    Gtr I
    PM------------------------------------------------------------|
||------------------|-----------------|-----------------|-----------------||
||o-----------------|-----------------|-----------------|----------------o||
||------------------|-----------------|-----------------|-----------------||
||------------------|-----------------|-----------------|-----------------||
||o-------------6---|-5-----------6---|-5-----------6---|-5---------8----o||
||--3-3-6-3-5-3---3-|---3-6-3-5-3---3-|---3-6-3-5-3---3-|---3-6-3-6-6-----||
|
|   Gtr II
||------------------|-----------------|-----------------|-----------------||
||o-----------------|-----------------|-----------------|----------------o||
||------------------|-----------------|-----------------|-----------------||
||------------------|-----------------|-----------------|-----------------||
||o-----------------|-----------------|-----------------|----------------o||
||------------------|-----------------|-----------------|-----------------||


   Verse
    Gtrs I, II
||------------------|-----------------|-----------------|----------------|
||o-----------------|-----------------|-----------------|----------------|
||------------------|-----------------|-----------------|----------------|
||------------------|-----------------|-----------------|----------------|
||o-------------6---|-5-3---------6---|-5-----------6---|-5-3-------8----|
||--3-3-6-3-5-3---3-|-----6-3-5-3---3-|---3-6-3-5-3---3-|-----6-3-6-6----|


  Gtrs I, II
|-----------------|-----------------|-----------------|----------------||
|-----------------|-----------------|-----------------|---------------o||
|-----------------|-----------------|-----------------|----------------||
|-----------------|-----------------|-----------------|----------------||
|-------------6---|-5-----------6---|-5-----------6---|-5---------3---o||
|-3-3-6-3-5-3---3-|---3-6-3-5-3---3-|---3-6-3-5-3---3-|---3-6-3-6-1----||


   Pre-Chorus
    Gtrs I, II
||---------------|--------------|--------------|----------------||
||o--------------|--------------|--------------|---------------o||
||---------------|--------------|--------------|----------------||
||---------------|--------------|--------------|----------------||
||o----------6---|----------3---|----------6---|----------3----o||
||--3-3-6-3--4---|-3-3-4-2--1---|-3-3-6-3--4---|-3-3-4-2--1-----||


   Chorus
    Gtrs I, II
||---------------|--------------|--------------|----------------||
||o--------------|--------------|--------------|---------------o||
||---------------|--------------|--------------|----------------||
||---------------|----------6---|--------------|----------6-----||
||o----------6---|----------4---|----------6---|----------4----o||
||--3-3-6-3--4---|-3-3-4-2------|-3-3-6-3--4---|-3-3-4-2--------||


 Bridge
|----------|------------|------------|--------|
|----------|------------|------------|--------|
|----------|------------|------------|--------|
|-5--------|-(5)--------|-(5)--------|-(5)----|
|-5--------|-(5)--------|-(5)--------|-(5)----|
|-3--------|-(3)--------|-(3)--------|-(3)----|


                >
|------------|------------|------------|--------|
|------------|------------|------------|--------|
|------------|------------|------------|--------|
|-(5)--------|-(5)--------|-(5)--------|-(5)----|
|-(5)--------|-(5)--------|-(5)--------|-(5)----|
|-(3)--------|-(3)--------|-(3)--------|-(3)----|


   Pre-Verse
    Gtrs I, II
    PM----------------------------------|
||--------------------------|-------------------|
||o-------------------------|-------------------|
||--------------------------|-------------------|
||--------------------------|-------------6--6--|
||o-------------------------|-------------4--4--|
||--3-3-3-3-3-3-3-3-3-3-3-3-|-3-3-3-3-3-3-------|


  PM----------------------------|    PM--|
|-------------------------|---------------------|
|-------------------------|---------------------|
|-------------------------|---------------------|
|-------------------------|---------------------|
|-------------------------|-------6--------6----|
|-3-3-3-3-3-3-3-3-3-3-3-3-|-0-0-0-4--0-0-0-4----|


  Gtrs I, II
  PM----------------------------------|
|-------------------------|-------------------|
|-------------------------|-------------------|
|-------------------------|-------------------|
|-------------------------|-------------6--6--|
|-------------------------|-------------4--4--|
|-3-3-3-3-3-3-3-3-3-3-3-3-|-3-3-3-3-3-3-------|


  PM--------------------------------------|
|-------------------------|------------------------||
|-------------------------|-----------------------o||
|-------------------------|------------------------||
|-------------------------|------------------------||
|-------------------------|------------------3----o||
|-3-3-3-3-3-3-3-3-3-3-3-3-|-3-3-3-3-3-3-3-3--1-----||


   Verse
    Gtrs I, II
||---------------|---------------|--------------|-----------------||
||o--------------|---------------|--------------|----------------o||
||---------------|---------------|--------------|-----------------||
||-----6-5---8-7-|-(7)-----------|----6-5---8-7-|-(7)-------------||
||o-5--4-3---6-5-|-(5)--6-5---3--|-5--4-3---6-5-|-(5)--6-5---3---o||
||--3------------|------4-3---1--|-3------------|------4-3---1----||


   Pre-Verse
    Gtrs I, II
    PM----------------------------------|
||--------------------------|-------------------|
||o-------------------------|-------------------|
||--------------------------|-------------------|
||--------------------------|-------------6--6--|
||o-------------------------|-------------4--4--|
||--3-3-3-3-3-3-3-3-3-3-3-3-|-3-3-3-3-3-3-------|


  PM----------------------------|    PM--|
|-------------------------|---------------------|
|-------------------------|---------------------|
|-------------------------|---------------------|
|-------------------------|---------------------|
|-------------------------|-------6--------6----|
|-3-3-3-3-3-3-3-3-3-3-3-3-|-0-0-0-4--0-0-0-4----|


  Gtrs I, II
  PM----------------------------------|
|-------------------------|-------------------|
|-------------------------|-------------------|
|-------------------------|-------------------|
|-------------------------|-------------6--6--|
|-------------------------|-------------4--4--|
|-3-3-3-3-3-3-3-3-3-3-3-3-|-3-3-3-3-3-3-------|


  PM--------------------------------------|
|-------------------------|------------------------||
|-------------------------|-----------------------o||
|-------------------------|------------------------||
|-------------------------|------------------------||
|-------------------------|------------------3----o||
|-3-3-3-3-3-3-3-3-3-3-3-3-|-3-3-3-3-3-3-3-3--1-----||


   Verse
    Gtrs I, II
||---------------|---------------|--------------|-----------------||
||o--------------|---------------|--------------|----------------o||
||---------------|---------------|--------------|-----------------||
||-----6-5---8-7-|-(7)-----------|----6-5---8-7-|-(7)-------------||
||o-5--4-3---6-5-|-(5)--6-5---3--|-5--4-3---6-5-|-(5)--6-5---3---o||
||--3------------|------4-3---1--|-3------------|------4-3---1----||


   Guitar Solo
      Gtr I
      PM--|    PM--|      PM--|
||--------------------|----------------|
||o-------------------|----------------|
||--------------------|----------------|
||--------------------|----------6--6--|
||o-------------------|----------4--4--|
||--3-3-3-3--3-3-3-3--|-3-3-3-3--------|
|
|   Gtr II
||--------------------|----------------|
||o-------------------|----------------|
||--------------------|----------------|
||--------------------|----------------|
||o-------------------|----------------|
||--------------------|----------------|


    PM--|    PM--|    PM--|    PM--|
|-------------------|--------------------|
|-------------------|--------------------|
|-------------------|--------------------|
|-------------------|--------------------|
|-------------------|-------6--------6---|
|-3-3-3-3--3-3-3-3--|-0-0-0-4--0-0-0-4---|
|
|-------------------|--------------------|
|-------------------|--------------------|
|-------------------|--------------------|
|-------------------|--------------------|
|-------------------|--------------------|
|-------------------|--------------------|


  Gtr I
    PM--|    PM--|      PM--|            PM--|    PM--|      PM--|
|-------------------|----------------|-------------------|------------------||
|-------------------|----------------|-------------------|-----------------o||
|-------------------|----------------|-------------------|------------------||
|-------------------|----------6--6--|-------------------|------------------||
|-------------------|----------4--4--|-------------------|--------------3--o||
|-3-3-3-3--3-3-3-3--|-3-3-3-3--------|-3-3-3-3--3-3-3-3--|-3-3-3-3--3-3-1---||
|
| Gtr II
|-------------------|----------------|-------------------|------------------||
|-------------------|----------------|-------------------|-----------------o||
|-------------------|----------------|-------------------|------------------||
|-------------------|----------------|-------------------|------------------||
|-------------------|----------------|-------------------|-----------------o||
|-------------------|----------------|-------------------|------------------||


 Outro
|------------------------------*|
|------------------------------*|
|------------------------------*|
|-6-5---5-----------------5----*|
|-----6---6-5-6-5---5-----5----*|
|-----------------6---6-5-3----*|
Добавлено: 27.03.2012
Другие материалы по этой песне:

Страница создана 27.03.2012
http://primanota.ru/death-angel/the-devil-incarnate-chords.htm
Привет, Гость.
Предлагаем пройти революционный курс по гитаре.
Подарок от PrimaNota.Ru, забирай!