PrimaNota.ru - самый крупный в мире бесплатный архив песенных текстов, аккордов, табулатур и нот


Death Angel - Son Of The Morning - таба, видео

Регистрация Запомнить меня
Войти через:  Facebook Google Twitter Vk Yandex Mail.ru

Death Angel - Son Of The Morning - таба, видео

Печатать
Просмотров: 61
DEATH ANGEL
"Son of the Morning"
From the album "The Dream Calls for Blood" (2013)

Tuning: Db Ab Db Gb Bb Eb

   Riff A (Intro)
    Q=88
   7/4
    Q  E Q  Q.   S S Q.   S S E   Q  E Q  Q.   S S Q.   S S E
||------------------------------|------------------------------||
||o-----------------------------|-----------------------------o||
||------------------------------|------------------------------||
||-----3-2----------------------|----3-2-----------------------||
||o--------------2-1-2------6-5-|--------------2-1-2------6-6-o||
||--0-------1-------------7-----|-0-------1-------------7------||


 4/4
  Q  Q  Q  Q    S E. S E. S E. S E.
|-------------|---------------------|
|-3--3--3--3--|---4----4----4----4--|
|-2--2--2--2--|---3----3----3----3--|
|-0--0--0--0--|---0----0----0----0--|
|-0--0--0--0--|---0----0----0----0--|
|-0--0--0--0--|-0----0----0----0----|


   Riff B
    Q=173
    E E E S S S S E E S S   S S E E S S S S S S S S S S
||------------------------|-----------------------------|
||o-----------------------|-----------------------------|
||------------------------|-----------------------------|
||------------------------|-----------------------------|
||o-----6-----------5-----|-----3-3---------6-6-6-6-6-6-|
||--0-5---0-0-0-0-3---0-0-|-0-0-3-3-0-0-0-0-6-6-6-6-6-6-|


  E E E S S S S E E S S   S S E E S S S S S S S S S S  4x
|-----------------------|------------------------------||
|-----------------------|-----------------------------o||
|-----------------------|------------------------------||
|-----------------------|------------------------------||
|-----6-----------5-----|-----3-3---------1-1-1-1-1-1-o||
|-0-5---0-0-0-0-3---0-0-|-0-0-3-3-0-0-0-0-1-1-1-1-1-1--||


   Riff C (Verse)
    S S S S S S S S E E E E   S S S S S S S S E Q  E
||--------------------------|-------------------------|
||o-------------------------|-------------------------|
||--------------------------|-------------------------|
||--------------------------|-------------------------|
||o---------------------6---|-------------------6--6--|
||--0-0-0-0-0-0-0-0-0-5---5-|-0-0-0-0-0-0-0-0-0-6--6--|


  S S S S S S S S E E E E   S S S S S S S S E Q  E
|-------------------------|-------------------------||
|-------------------------|------------------------o||
|-------------------------|-------------------------||
|-------------------------|-------------------------||
|---------------------5---|-------------------1--1-o||
|-0-0-0-0-0-0-0-0-0-3---3-|-0-0-0-0-0-0-0-0-0-1--1--||


   Riff D
    E S S S S Q  Q  E   E S S S S Q  Q  E   E S S S S Q  Q  E   E E E Q  Q  E
||--------------------|-------------------|-------------------|------------------||
||o-------------------|-------------------|-------------------|-----------------o||
||--------------------|-------------------|-------------------|------------------||
||------------1--4--1-|-----------4--7--4-|-----------1--4--1-|-------7--7--4----||
||o-0---------1--4--1-|-0---------4--7--4-|-0---------1--4--1-|-0-----7--7--4---o||
||--0-0-0-0-0-1--4--1-|-0-0-0-0-0-4--7--4-|-0-0-0-0-0-1--4--1-|-0-0-0-7--7--4----||


   Solo 1 (rhythm guitar plays Riff B)
     S  S  S  S  S  S  S  S  S  S  S  S  S  S  S  S    S  S  S  S  S  S  S  S  S  S  S  S  S  S  S  S
||--------------------------------------------------|---------------------------------------------------||
||o-------------------------------------------------|--------------------------------------------------o||
||--11-11-14-14-12-12-11-11-14-14-12-12-11-11-14-14-|-12-12-15-15-14-14-12-12-15-15-14-14-12-12-15-15---||
||--------------------------------------------------|---------------------------------------------------||
||o-------------------------------------------------|--------------------------------------------------o||
||--------------------------------------------------|---------------------------------------------------||


   S  S  S  S  S  S  S  S  S  S  S  S  S  S  S  S    S  S  S  S  S  S  S  S  S  S  S  S  S  S  S  S
|-------------------------------------------------|-------------------------------------------------|
|-------------------------------------------------|-------------------------------------------------|
|-14-14-17-17-15-15-14-14-17-17-15-15-14-14-17-17-|-15-15-19-19-17-17-15-15-20-20-19-19-17-17-15-15-|
|-------------------------------------------------|-------------------------------------------------|
|-------------------------------------------------|-------------------------------------------------|
|-------------------------------------------------|-------------------------------------------------|


   S  S  S  S  S  S  S  S  S  S  S  S  S  S  S  S    S  S  S  S  S  S  S  S  S  S  S  S  S  S  S  S
|-------------------------------------------------|-15-17-17-17-15-17-17-17-15-17-17-17-15-17-17-17-|
|-------------------------------------------------|-------------------------------------------------|
|-17-19-19-19-17-19-19-19-17-19-19-19-17-19-19-19-|-------------------------------------------------|
|-------------------------------------------------|-------------------------------------------------|
|-------------------------------------------------|-------------------------------------------------|
|-------------------------------------------------|-------------------------------------------------|

   Repeat Riff C and Riff D

   Riff E
    E  S S S S S S S S S S S S S S   E E E E E E E E
||---------------------------------|-----------------|
||o--------------------------------|-----------------|
||---------------------------------|-----------------|
||---------------------------------|-------5---------|
||o------------------------3h5-----|-----6---6-5-----|
||--0--0-0-0-0-3h5-0-0-0-0-----0-0-|-0-6---------6-5-|


  E  S S S S S S S S S S S S S S   E E E E E. E. E
|--------------------------------|------------------|
|--------------------------------|------------------|
|--------------------------------|------------------|
|--------------------------------|------------------|
|------------------------3h5-----|-------5-6--5-----|
|-0--0-0-0-0-3h5-0-0-0-0-----0-0-|-0-5-6---------6--|


  E  S S S S S S S S S S S S S S   E E E E E E E E
|--------------------------------|-----------------|
|--------------------------------|-----------------|
|--------------------------------|-----------------|
|--------------------------------|-------5---------|
|------------------------3h5-----|-----6---6-5-----|
|-0--0-0-0-0-3h5-0-0-0-0-----0-0-|-0-6---------6-5-|


                                   1.
  E  S S S S S S S S S S S S S S   E E Q  E E Q
|--------------------------------|----------------||
|--------------------------------|---------------o||
|--------------------------------|----------------||
|--------------------------------|----------------||
|------------------------3h5-----|---5-5----6-6--o||
|-0--0-0-0-0-3h5-0-0-0-0-----0-0-|-0-5-5--0-6-6---||


  2.
  |-3-| |-3-|   |--3--| |-3-|
  Q Q Q Q Q Q   E E Q Q Q Q Q
|-------------|---------------|
|-------------|---------------|
|-------------|---------------|
|-5-5-5-6-6-6-|-----9-9-1-1-1-|
|-5-5-5-6-6-6-|-----9-9-1-1-1-|
|-5-5-5-6-6-6-|-0-0-9-9-1-1-1-|


   Riff A (Break)
    Q=88
   7/4
    Q  E Q  Q.   S S Q.   S S E   Q  E Q  Q.   S S Q.   S S E
||------------------------------|------------------------------||
||o-----------------------------|-----------------------------o||
||------------------------------|------------------------------||
||-----3-2----------------------|----3-2-----------------------||
||o--------------2-1-2------6-5-|--------------2-1-2------6-6-o||
||--0-------1-------------7-----|-0-------1-------------7------||


 Solo 2 (rhythm guitar plays Riff A)
                                                     |--3--|        |--3--|
   H.       E  H    E S  S  S  S    S  H    S  E.    S  S  S  S  S  S  S  S  S  S  S  S  S  S     S  E
|----------12--------------------|------------15b17r13-15-13-12-13-12-13-12-10-12-10----10-------------|
|-------------13~~~-----10-13-10-|-13s15---------------------------------------------13----13b15r13-10-|
|-10-----------------------------|---------------------------------------------------------------------|
|--------------------------------|---------------------------------------------------------------------|
|--------------------------------|---------------------------------------------------------------------|
|--------------------------------|---------------------------------------------------------------------|


         \0.5/  \0.5/  \0.5/  \0.5/
   H     E      E      E      E      E  E  E  Q.
|-----------------------------------------13-12~~|
|-----------------------------------11-12--------|
|/12----12-----12-----12-----12------------------|
|------------------------------------------------|
|------------------------------------------------|
|------------------------------------------------|


        T     T           T     T           T     T           T     T          
   +Q   T  T  T  T  T  T  T  T  T  T  T  T  T  T  T  T  T  T  T  T  T  T  T  T  
|-(12)-------------------------------------------------------------------------
|------15p13h15p13p10h13-15p13h15p13p10h13-17p13h17p13p10h13-17p13h17p13p10h13-
|------------------------------------------------------------------------------
|------------------------------------------------------------------------------
|------------------------------------------------------------------------------
|------------------------------------------------------------------------------

 T     T           T     T           T     T           T     T
 T  T  T  T  T  T  T  T  T  T  T  T  T  T  T  T  T  T  T  T  T  T  T  T
--------------------------------------------------------------------------|
-18p13h18p13p10h13-18p13h18p13p10h13-19p13h19p13p10h13-20p13h20p13p10h13--|
--------------------------------------------------------------------------|
--------------------------------------------------------------------------|
--------------------------------------------------------------------------|
--------------------------------------------------------------------------|


   Riff F
   4/4
    S S S S S S S S S S S S S S S S
||-----------------------------------||
||o---------------------------------o||
||-----------------------------------||
||-----------------------------------||
||o-----6---5-------6---5---0-5-3-6-o||
||--0-5---0---6-0-5---0---6-0-5-3-6--||


  S S S S S S S S S S S S S S S S
|---------------------------------|
|---------------------------------|
|---------------------------------|
|---------------------------------|
|-0-5-3-6-0-5-3-6-0-5-3-6-0-5-3-6-|
|-0-5-3-6-0-5-3-6-0-5-3-6-0-5-3-6-|

 Repeat Riff B

 Solo 3 (rhythm guitar plays Riff B)
  Q=173
   Q      E     S  S  S  S  S  S  S  S  S  S    S  S  S  S  S  S  S  S  S  S  S  S  S  S  S  S
|-----------------10h13p10----10h13p10----10h|-15p10----10h15p10----10h14p10----10h14p10----10h=|
|-13b15--13b15-13----------13----------13----|-------13----------13----------13----------13-----|
|--------------------------------------------|--------------------------------------------------|
|--------------------------------------------|--------------------------------------------------|
|--------------------------------------------|--------------------------------------------------|
|--------------------------------------------|--------------------------------------------------|


   S  S  S  S  S  S  S  S  S  S  S  S  S  S  S  S    S  S  S  S  S  S  S  S  S  S  S  S  S  S  S  S
|-13p10----10h13p10----10h12p10----10h12p10----10-|-12-10-13-10-12-10----10-------------------------|
|-------13----------13----------13----------13----|-------------------13----12-10-13-10-12-10----10-|
|-------------------------------------------------|-------------------------------------------12----|
|-------------------------------------------------|-------------------------------------------------|
|-------------------------------------------------|-------------------------------------------------|
|-------------------------------------------------|-------------------------------------------------|

                                            |--3--|
   H     H       H     H      S  Q      E.  Q  Q  Q    S  S  S  S  S  S  S  S  S  S  E Q
|-------------|-------------|---20b22r=20--18-17----|-------------------------------------|
|-------10----|-------17----|--------------------20-|-20h21p20p18-20p18----18-20p18-------|
|-------10----|-------17----|-----------------------|-------------------19----------19----|
|-12----------|-19----------|-----------------------|-------------------------------------|
|-------------|-------------|-----------------------|-------------------------------------|
|-------------|-------------|-----------------------|-------------------------------------|

 Repeat Riff D and Riff E

 Ending
    |-3-|       |-3-|
  E S S S E E E S S S E E   Q  Q  Q  Q
|-------------------------|-------------*|
|-------------------------|-------------*|
|-------------------------|-------------*|
|-6-5-6-5---5-------------|-------------*|
|---------6---6-5-6-5---5-|-0-----------*|
|---------------------6---|-0-----------*|


Duration Legend
---------------
W - whole; H - half; Q - quarter; E - 8th; S - 16th; T - 32nd; X - 64th; a - acciaccatura
+ - note tied to previous; . - note dotted; .. - note double dotted
Uncapitalized letters represent notes that are staccato (1/2 duration)
Irregular groupings are notated above the duration line
Duration letters will always appear directly above the note/fret number it represents the
duration for.  Duration letters with no fret number below them represent rests.  Multi-
bar rests are notated in the form Wxn, where n is the number of bars to rest for.  Low
melody durations appear below the staff

Tablature Legend
----------------
 h   - hammer-on
 p   - pull-off
 b   - bend
 pb  - pre-bend
 r   - bend release (if no number after the r, then release immediately)
 /\  - slide into or out of (from/to "nowhere")
 s   - legato slide
 S   - shift slide
  - natural harmonic
[n]  - artificial harmonic
n(n) - tapped harmonic
 ~   - vibrato
 tr  - trill
 T   - tap
 TP  - trem. picking
 PM  - palm muting
\n/  - tremolo bar dip; n = amount to dip
 \n  - tremolo bar down
 n/  - tremolo bar up
/n\  - tremolo bar inverted dip
 =   - hold bend; also acts as connecting device for hammers/pulls
 <>  - volume swell (louder/softer)
 x   - on rhythm slash represents muted slash
 o   - on rhythm slash represents single note slash

Misc Legend
-----------
 |  - bar
||  - double bar
||o - repeat start
o|| - repeat end
*|  - double bar (ending)
 :  - bar (freetime)
 $  - Segno
 &  - Coda
Tempo markers -  = BPM(8/16=s8/s16), where s8 = swing 8ths, s16 = swing 16ths
Добавлено: 15.06.2016
Другие материалы по этой песне:
  • Аккорды и текст

Страница создана 15.06.2016
http://primanota.ru/death-angel/son-of-morning-chords.htm
Привет, Гость.
Предлагаем пройти революционный курс по гитаре.
Подарок от PrimaNota.Ru, забирай!