PrimaNota.ru - самый крупный в мире бесплатный архив песенных текстов, аккордов, табулатур и нот


Death Angel - Dethroned - текст песни, таба, видео

Регистрация Запомнить меня
Войти через:  Facebook Google Twitter Vk Yandex Mail.ru

Death Angel - Dethroned - текст песни, таба, видео

Печатать
Просмотров: 282
Tuned down one half step

Intro
d#--------------------------------------------------------------------------|
A#--------------------------------------------------------------------------|
F#--------------------------------------------------------------------------|
C#------4-------4-------4-------4-------4-------4-------4-------4-------4---|
G#----4---4---4---4---4---4---4---4---4---4---4---4---4---4---4---4---4---4-|
D#--2-------2-------2-------2-------3-------3-------3-------3-------5-------|
                                              Fill 1
d#------------------------------------------|------------------------|
A#------------------------------------------|------------------------|
F#------------------------------------------|------------------------|
C#------4-------4-------4-------4-------4---|--------------------4---|
G#----4---4---4---4---4---4---4---4---4---4-|------2-4-2-------4---4-|
D#--5-------0-------0-------2-------2-------|2-3-5-------5-3-2-------|
Repeat
I haven't figured out the second fill yet


d#--------------------------------------------------------------------------|
A#--------------------------------------------------------------------------|
F#--------------------------------------------------------------------------|
C#--4--------------------------5--------------------------7-----------2-----|
G#--4--------------------------5--------------------------7-----------2-----|
D#--2--------------------------3--------------------------5-----------0-----|
   "No arms that can hold me" "No arms that can mold me" "Step aside, you're
wasting time"

Verse
d#--------------------------------------------------------------------------|
A#--------------------------------------------------------------------------|
F#--------------------------------------------------------------------------|
C#--5-------4-------5-------4-------5---4-----5-------4-------5-------4-----|
G#--5-------4-------5-------4-------5---4-----5-------4-------5-------4-----|
D#--3---0---2---0---3---0---2---0---3-0-2-0---3---0---2---0---3---0---2---0-|

d#----------|
A#----------|
F#----------|
C#--5-2-2-2-|
G#--5-2-2-2-|
D#--3-0-0-0-|
repeat 0's are pm'ed

d#---------------------------------|--------------------------------|
A#---------------------------------|--------------------------------|
F#---------------------------------|--------------------------------|
C#--5\4---5\4---4----------4-------|-4/5---4/5---5----------5-------|
G#--5\4---5\4---4----4---------4---|-4/5---4/5---5----5---------5---|
D#--3\2-0-3\2-0-2--2---2-2---2---2-|-2/3-0-2/3-0-3--3---3-3---3---3-|


d#---------------|
A#---------------|
F#---------------|
C#--5-4-5-4-5-4\-|
G#--5-4-5-4-5-4\-|
D#--3-2-3-2-3-2\-|
pm............

Chorus
d#---------------------------------------------------------------------------|
A#---------------------------------------------------------------------------|
F#---------------------------------------------------------------------------|
C#--4--444--444--444--445--555--555--555--557--777--777--777--7-------5-7----|
G#--4--444--444--444--445--555--555--555--557--777--777--777--7---5-7----7-5-|
D#--2--222--222--222--223--333--333--333--335--555--555--555--5-8------------|

Thats what I've got for now will update later
Добавлено: 02.04.2012
Другие материалы по этой песне:
  • Аккорды и текст

Страница создана 02.04.2012
http://primanota.ru/death-angel/dethroned-chords.htm
Привет, Гость.
Предлагаем пройти революционный курс по гитаре.
Подарок от PrimaNota.Ru, забирай!