PrimaNota.ru - самый крупный в мире бесплатный архив песенных текстов, аккордов, табулатур и нот


Dear Whoever - Battlefield Radio - текст песни, таба, видео

Регистрация Запомнить меня
Войти через:  Facebook Google Twitter Vk Yandex Mail.ru

Dear Whoever - Battlefield Radio - текст песни, таба, видео

Печатать
Просмотров: 138
                             Battlefield Radio – Dear Whoever
----------------------------------------------------------------------------
Tabbed by: Billybusa
Email: Hayabusa__FMW@hotmail.com

Tuning: Drop D

e|-----------------------------------------------------------|
B|-----------------------------------------------------------|
G|-----------------------------------------------------------|Guitar 1 and 2
D|-----------------------------------------------------------|
A|-0-0-0-0-0-0000-0-0----------0-0--------0-0---------0-0----|
D|-0-0-0-0-0-0000-0-0----------0-0--------0-0---------0-0----|
   --------------------------------------------------------->PM
 
e|-----------------------------------------------------------|
B|-----------------------------------------------------------|
G|-----------------------------------------------------------|Guitar 1 and 2
D|-----------------------------------------------------------|
A|-0-0-0-------0-0-------------------------------------------|
D|-0-0-0-------0-0-------------------------------------------|
   . .         . .
e|-----------------------------------------------------------|
B|-----------------------------------------------------------|
G|-----------------------------------------------------------|
D|-15-15-15-15-15-15-15-15-17-17-17-17-14-14-14-14-----------|Guitar 1
A|-----------------------------------------------------------|
D|-----------------------------------------------------------|

                    At the same time Guitar 2 goes:
e|-----------------------------------------------------------|
B|-----------------------------------------------------------|
G|-14-14-14-14-14-14-14-14-15-15-15-15-12-12-12-12-----------|
D|-----------------------------------------------------------|
A|-----------------------------------------------------------|
D|-----------------------------------------------------------|

e|-----------------------------------------------------------|
B|-----------------------------------------------------------|
G|-----------------------------------------------------------|
D|-----------------------------------------------------------|Guitar 1 and 2
A|-0-0-0-0-0-0000-0-0----------0-0--------0-0--------0-0-----|
D|-0-0-0-0-0-0000-0-0----------0-0--------0-0--------0-0-----|
 ------------------------------------------------------------> PM

e|-----------------------------------------------------------|
B|-----------------------------------------------------------|
G|-----------------------------------------------------------|Guitar 1 and 2
D|-----------------------------------------------------------|
A|-0-0-0-------0-0-------------------------------------------|
D|-0-0-0-------0-0-------------------------------------------|
   . .         . .

e|---------------------------------------|
B|---------------------------------------|
G|---------------------------------------|
D|---------------10-----------------9----| Guitar 1 and 2
A|--8----8----8---8----8----8----8--7----|
D|--8----8----8---8----8----8----8--8----|
    .    .    .        .    .    .
e|-----------------------------------------------------------|
B|-----------------------------------------------------------|
G|-----------------------------------------------------------|
D|-----------------------------------------------------------|Guitar 1 and 2
A|-0-000-0-0--0-0-0------------------------------------------|
D|-0-000-0-0--0-0-0------------------------------------------|
  --------------------------> PM

e|-----------------------------------------------------------|
B|----------------------------------9----10---9---10---------|
G|----------------------------------12---13---12--13---------|  
D|-----------------------------------------------------------|Guitar 1 and 2
A|-0-000-0-0-0---0---0---0-----------------------------------|
D|-0-000-0-0-0---0---0---0-----------------------------------|
  ---------------------------> PM

|------------------------------------------------------------|
B|-----------------------------------------------------------|
G|-----------------------------------------------------------|
D|-----------------------------------------------------------|Guitar 1 and 2
A|-0-000-0-0--0-0-0------------------------------------------|
D|-0-000-0-0--0-0-0------------------------------------------|
  ---------------------------> PM

e|-----------------------------------------------------------|
B|----------------------------------9----10---9---10---------|
G|----------------------------------12---13---12--13---------|  
D|-----------------------------------------------------------|Guitar 1 and 2
A|-0-000-0-0-0---0---0---0-----------------------------------|
D|-0-000-0-0-0---0---0---0-----------------------------------|
    -------------------------> PM

e|-----------------------------------------------------------|
B|-----------------------------------------------------------|
G|-----------------------------------------------------------|
D|-----------------------------------------------------------|Guitar 1 and 2
A|-0-000-0-0--0-0-0------------------------------------------|
D|-0-000-0-0--0-0-0------------------------------------------|
  ---------------------------> PM

e|-----------------------------------------------------------|
B|----------------------------------9----10---9---10---------|
G|----------------------------------12---13---12--13---------|  
D|-----------------------------------------------------------|Guitar 1 and 2
A|-0-000-0-0-0---0---0---0-----------------------------------|
D|-0-000-0-0-0---0---0---0-----------------------------------|
    -------------------------> PM


| /  slide up
| \  slide down
| h  hammer-on
| p  pull-off
| ~  vibrato
| +  harmonic
| x  Mute note
============================================================================
Добавлено: 05.06.2012
Другие материалы по этой песне:

Страница создана 02.03.2012
http://primanota.ru/dear-whoever/battlefield-radio-chords.htm
Привет, Гость.
Предлагаем пройти революционный курс по гитаре.
Подарок от PrimaNota.Ru, забирай!