PrimaNota.ru - самый крупный в мире бесплатный архив песенных текстов, аккордов, табулатур и нот


Dear Whoever - A Place For The End - текст песни, таба, видео

Регистрация Запомнить меня
Войти через:  Facebook Google Twitter Vk Yandex Mail.ru

Dear Whoever - A Place For The End - текст песни, таба, видео

Печатать
Просмотров: 146
This is the first tab I'm submitting, tons of people have been looking for a tab for 
song including me so I took the liberty to tab it out the best I can.

**PLEASE COMMENT AND RATE AND NOTE THAT I WILL EDIT THIS TO MAKE IT  ACCURATE, AND AM 
FOR SUGGESTIONS**

KEY:
* = harmonic
/ = slide
h:p = hammer on:pull off
~ = vibrato
# = palm mute

Intro:

----------------------------|
-----2-2h3--------------2/3-|
-----------------2----------|
---4-----------0------4-----|
-2------------------2-------|
-------------3--------------|

---------------------------------5~-5-5-5-5-5\3-|
-----------12*------3\2~-----2h3----------------|
-----2---2--------------------------------------|
---0---0-------12*---------4--------------------|
-------------------------2----------------------|
-3-----------------3----------------------------|

---------------------3-3-3-2----|p0
------------3p2-----------------|
2p0-----2/4-----2\0~------------|
-----0--------------------------|
--------------------------------|
---3----------------------------|

--------------------------####-------------|
------2-2h3---------------####-------------|
-------------777----------####-------------|
----4--------777--77777h9------------------|
--2----------555--77775--------------------|
------------------55555--------------------|

The verse I need to spend a lot more time on but it's mostly palm mutes

------------------------|
------------------------|
------------------------|
10--####################|
12--####################|
12--####################|

Then there's a little riff when it says "that there is nothing now" and this shows up 
in most of the screaming parts

---------------------|
---------------------|
--------0------------|
--4-2-----4---2------|
---------------------|
3-----3-----3--------|

after the piano comes in starting at "sometimes I fall":

----0--12--10-9-----------------------------|
-------12*------10----2-2h3-----------------|
-------12*--------------------------0-------|
--4-----------------4---------4-2-----4---2-|
2-----------------2-------------------------|
----------------------------3-----3-----3---|

12--10-9----12----------------0--|
12*------10---------2-2h3--------|
12*------------------------------|
------------------4---------4----|
----------------2---------2------|
---------------------------------|


---------------------------------|
-----2-3-------------------------|
-----------------0---------------|
---4-------4-2-----4---2---------|
-2-------------------------------|
---------3-----3-----3-----------|

most of the verses revolve around these chords just with different variations and 
played differently

10      especially this one:   --
10                             12
11                             12
12                             10
12                             12
10                             12

Outro: basically the intro mixed with the harmonic parts in the part that starts when it 
"sometimes I fall"

I'll try to get the verses accurate and detailed but for now comment and rate :)
Добавлено: 13.06.2012
Другие материалы по этой песне:
  • Аккорды и текст

Страница создана 13.06.2012
http://primanota.ru/dear-whoever/a-place-for-the-end-chords.htm
Привет, Гость.
Предлагаем пройти революционный курс по гитаре.
Подарок от PrimaNota.Ru, забирай!