PrimaNota.ru - самый крупный в мире бесплатный архив песенных текстов, аккордов, табулатур и нот


Dear Reader - Dancing In The Dark - таба, видео

Регистрация Запомнить меня
Войти через:  Facebook Google Twitter Vk Yandex Mail.ru

Dear Reader - Dancing In The Dark - таба, видео

Печатать
Просмотров: 187
Уроки эстрадного вокала в Санкт-Петербурге
Dera Reader - Dancing in the dark (Bruce Springsteen cover)

First tab. It's 100% not correct, but I think it's a pretty good guess.


Capo 6th fret.

INTRO:
e ----------------------------------------------------|
B -----------------------------0----------------------|
G -----------0-----------1-----------1-----0----------|    x4
D -----0-----------0-----------------------------0----|
A ----------------------------------------------------|
E --3-----3-----3-----3-----3-----3-----3-----3-------|

e ----------------------------------------------------|
B -----------------------------0----------------------|
G -----------0-----------1-----------1-----0----------|    x2
D -----0-----------0-----------------------------0----|
A --3-----3-----3-----3-----3-----3-----3-----3-------|
E ----------------------------------------------------|

e ----------------------------------------------------|
B -----------------------------0----------------------|
G -----------0-----------1-----------1-----0----------|    x2
D -----0-----------0-----------------------------0----|
A ----------------------------------------------------|
E --3-----3-----3-----3-----3-----3-----3-----3-------|


VERSE:
I get up in the evening
and I ain't got nothing to say
I come home in the morning
I go to bed feeling the same way
e ----------------------------------------------------|
B -----------0-----------------------0----------------|
G -----------------0-----------------------0----------|    x4
D -----0-----------------0-----0-----------------0----|
A ----------------------------------------------------|
E --3-----3-----3-----3-----0-----0-----0-----0-------|

I ain't nothing but tired
e ----------------------------------------------------|
B -----------1----------------------------------------|
G -----------------0-----------------0----------------|
D -----2-----------------2-----2-----------2-----2----|
A --3-----3-----3-----3-----0-----0-----0-----0-------|
E ----------------------------------------------------|

I'm just tired and bored with myself
e ----------------------------------------------------|
B -----------1-----------------------1----------------|
G -----------------0-----------------------0----------|
D -----2-----------------2-----2-----------------2----|
A --3-----3-----3-----3-----0-----0-----0-----0-------|
E ----------------------------------------------------|

Hey there baby,
I could use just a little help
e ----------------------------------------------------|
B -----------0-----------------------0----------------|
G -----------------0-----------------------0----------|    x2
D -----0-----------------0-----0-----------------0----|
A ----------------------------------------------------|
E --3-----3-----3-----3-----0-----0-----0-----0-------|


CHORUS:
You can't start a fire
e ----------------------------------------------------|
B -----------3----------------------------------------|
G -----------------0-------------------0--------------|
D -----4-----------------4-------4-----------4-----4--|
A --5-----5-----5-----5-------5-----5-----5-----5-----|
E ----------------------------------------------------|

You can't start a fire without a spark
e ----------------------------------------------------|
B -----------3-------------------------3--------------|
G -----------------0-------------------------0--------|
D -----4-----------------4-------4-----------------4--|
A --5-----5-----5-----5-------5-----5-----5-----5-----|
E ----------------------------------------------------|

This gun's for hire
e ----------------------------------------------------|
B -----------1----------------------------------------|
G -----------------0-------------------0--------------|
D -----2-----------------2-------2-----------2-----2--|
A --3-----3-----3-----3-------3-----3-----3-----3-----|
E ----------------------------------------------------|

even if we're just dancing in the dark
e ----------------------------------------------------|
B -----------1-------------------------1--------------|
G -----------------0-------------------------0--------|
D -----2-----------------2-------2-----------------2--|
A --3-----3-----3-----3-------3-----3-----3-----3-----|
E ----------------------------------------------------|

e ----------------------------------------------------|
B -----------------------------0----------------------|
G -----------0-----------1-----------1-----0----------|    x2
D -----0-----------0-----------------------------0----|
A ----------------------------------------------------|
E --3-----3-----3-----3-----3-----3-----3-----3-------|


BRIDGE:
You sit around getting older
e ----------------------------------------------------|
B -----------0-----------------------0----------------|
G -----------------0-----------------------0----------|
D -----2-----------------0-----0-----------------0----|
A ----------------------------------------------------|
E --0-----0-----0-----0-----3-----3-----3-----3-------|

there's a joke here somewhere and it's on me
e ----------------------------------------------------|
B -----------1-------------------------3--------------|
G -----------------0----------------------------------|
D -----2-----------------2-------4-----------4-----5--|
A --3-----3-----3-----3-------5-----5-----5-----5-----|
E ----------------------------------------------------|

I'll shake this world off my shoulders
e ----------------------------------------------------|
B -----------0-----------------------0----------------|
G -----------------0-----------------------0----------|
D -----2-----------------0-----0-----------------0----|
A ----------------------------------------------------|
E --0-----0-----0-----0-----3-----3-----3-----3-------|

come on baby come on over
e ----------------------------------------------------|
B -----------1----------------------------------------|
G -----------------0--------------------0-------------|
D -----2-----------------2-------2-----------2-----2--|
A --3-----3-----3-----3-------3-----3-----3-----3-----|
E ----------------------------------------------------|

let me be the one to show you          (let ring)
e ----------------------------------------------------|
B -----------1-------------------------3--------------|
G -----------------0-------------------0--------------|
D -----2-----------------2-------4--------------------|
A --3-----3-----3-----3-------5-----5-----------------|
E ----------------------------------------------------|


Whole Song structure:

-INTRO

-VERSE 1
I get up in the evening
and I ain't got nothing to say
I come home in the morning
I go to bed feeling the same way
I ain't nothing but tired
I'm just tired and bored with myself
Hey there baby,
I could use just a little help

-CHORUS
You can't start a fire
You can't start a fire without a spark
This gun's for hire
even if we're just dancing in the dark

-VERSE 2
Message just keeps getting clearer
radio's on and I'm moving around my place
I check my look in the mirror
I wanna change my clothes, my hair, my face
Man I ain't getting nowhere
I'm just living in a dump like this
There's something happening somewhere baby...
I just know that there is

-CHORUS
You can't start a fire
you can't start a fire without a spark
This gun's for hire
even if we're just dancing in the dark

-BRIDGE
You sit around getting older
there's a joke here somewhere and it's on me
I'll shake this world off my shoulders
come on baby the laugh's on me

-VERSE 3
Stay on the streets of this town
and they'll be carving you up alright
They say you gotta stay hungry
hey baby I'm just about starving tonight
I'm dying for some action
I'm sick of sitting 'round here trying to write this book
I need a love reaction
come on now baby gimme just one look

You can't start a fire sitting 'round crying over a broken heart
This gun's for hire
Even if we're just dancing in the dark
You can't start a fire worrying about your little world falling apart
This gun's for hire
Even if we're just dancing in the dark
Even if we're just dancing in the dark
Even if we're just dancing in the dark
Even if we're just dancing in the dark
Hey baby
Добавлено: 18.06.2013
Другие материалы по этой песне:
  • Аккорды и текст

Страница создана 18.06.2013
http://primanota.ru/dear-reader/dancing-in-the-dark-chords.htm
Привет, Гость.
Предлагаем пройти революционный курс по гитаре.
Подарок от PrimaNota.Ru, забирай!