PrimaNota.ru - самый крупный в мире бесплатный архив песенных текстов, аккордов, табулатур и нот


Dear Landlord - Landlocked - аккорды и текст, видео

Регистрация Запомнить меня
Войти через:  Facebook Google Twitter Vk Yandex Mail.ru

Dear Landlord - Landlocked - аккорды и текст, видео

Печатать
Просмотров: 123
Уроки эстрадного вокала в Санкт-Петербурге
Авторы музыки: Brett Hunter, Zack Gontard
Авторы текста: Brett Hunter, Brad Lokkesmoe
Landlocked
Dear Landlord
Dear Landlord - Landlocked
Use Standard Tuning
Tabbed by: joeyjazz

A                            E
leaving trains, I watch them roll away
             D
the southern night cold as hell
             A              E
it's a ghost town at three am
  A                          E
a fifth away, it calms these landlocked shakes
 D                            A
awake until the sun comes up again
     A                           E
it's always the same, I got this nervous way
            D
it keeps my thoughts somewhere else
         A              E
keeps me lost inside my head
   A                            E
an awful place, some things you can't escape
     D                                A
I'll walk these empty streets alone tonight
D            A              E
 looking for something to remind myself
D              A                  E
 here with the stray dogs and the third shift help
  F#                                 E
I know that I'm slurring these small words
                     D
I'm the only one who heard

        A                  F#
maybe tomorrow, might be tomorrow
     E                                D
everything won't seem so terrible and desperate
            A                F#
wait 'til tomorrow, wake up tomorrow
             E                            D
you won't be miserable and looking for an exit
          D            A
wake up tomorrow

-Solo- 
A
  there won't be shadows hanging overhead all day
F#
  and every stranger won't be a plotting enemy
D
  your luck's got to change, it can't stay the same
E
  each passing day I wonder

how much bullshit we can take
F#
before we all end up screaming
E                            D
just gotta make it through tonight

        A                  F#
maybe tomorrow, might be tomorrow
     E                                D
everything won't seem so terrible and desperate
            A                C#
wait 'til tomorrow, wake up tomorrow
             F#            E              D
you won't be miserable and looking for an exit


Solo:
         A            F#           E                D
|----------------------------------------------------------------|
|----------------------------------------------------------------|
|----------------------------------------------------------------|
|--7-7-6-7------7-7-6-7------7-7-6-7-----------------------------|
|----------7------------7------------7-7-5-4-7-4-7-5-7-5-4-------|
|----------------------------------------------------------5-----|

         A                 F#                E              D
|----------------------------------------------------------------|
|----------------------------------------------------------------|
|----------------------------------------------------------------|
|--7-7-6-7-------------7-6-7-----------7-7-6-7-------------------|
|----------7-7-5-4---7-------7-5-4-------------7-7-5-4-7-4-7-5---|
|----------------------------------5-----------------------------|
Добавлено: 11.04.2012
Вам также может быть интересно:
Другие материалы по этой песне:
  • Аккорды и текст

Страница создана 11.04.2012
http://primanota.ru/dear-landlord/landlocked-chords.htm
Привет, Гость.
Предлагаем пройти революционный курс по гитаре.
Подарок от PrimaNota.Ru, забирай!