PrimaNota.ru - самый крупный в мире бесплатный архив песенных текстов, аккордов, табулатур и нот


Dear Landlord - Goodbye To Oakland - аккорды и текст, видео

Регистрация Запомнить меня
Войти через:  Facebook Google Twitter Vk Yandex Mail.ru

Dear Landlord - Goodbye To Oakland - аккорды и текст, видео

Печатать
Просмотров: 90
Авторы музыки: Brett Hunter, Zack Gontard
Авторы текста: Brett Hunter, Brad Lokkesmoe
Goodbye To Oakland
Dear Landlord
-------------------------------------------------------------------------------
			     GOODBYE TO OAKLAND - Dear Landlord
-------------------------------------------------------------------------------
Tabbed by: Blake Larson
Email: larxon@gmail.com

Tuning: standard

short, fast, easy and awesome. the toughest part is the strum pattern. or maybe
it's finding two friends who can do the great vocal harmonies. it's all power
chords.

----------

intro

   [D5]     [D5]    [D5]    [A5]

e|---------------------------------------------------------------------------|
B|----xxxx----xxxx----xxxx---------------------------------------------------|
G|-77-xxxx-77-xxxx-77-xxxx---------------------------------------------------|
D|-77-xxxx-77-xxxx-77-xxxx--7-7-7--------------------------------------------|
A|-55-xxxx-55-xxxx-55-xxxx--7-7-7--------------------------------------------|
E|--------------------------5-5-5--------------------------------------------|

	
	[D5]
	    i got two dollars and fifty-one cents


	[B5]
	    eighteen matches, a lighter, two pens


	[G5]
	    a beat up copy of Cannery Row


	[A5]
	    five hundred miles left to go

	    [x2]





	[D5]              [A5]          [G5] (pm) [G5][A5]
	    everywhere i go i'm looking down


	[D5]                 [A5]      [B5]               [G5]
	    watching my old tennis shoes as their wearing out


	[D5]        [A5]                [G5] (pm) [G5][A5]
	    walking off these homesick blues


	[D5]         [A5]          [B5]             [G5]
	    i may be drunk and lost, but I'm not confused and





	[D5]                      [A5]
	    i know where this train is slowly going


	[E5]                [G5]
	    north to K-falls, then on to Portland


	[D5]                    [A5]
	    i know i'm fucked up. it's stupid hoping


	[E5]                         [G5]               [A5]
	    you'll answer phone calls. Goodbye to Oakland

----------

starting at "i know where this train", it's a single downstroke for each 
chord. just hold them out. at "i know I'm fucked up" start strumming again.

enjoy

************************************

| /   slide up
| \   slide down
| h   hammer-on
| p   pull-off
| ~   vibrato
| +   harmonic
| x   Mute note
| b   Bend
| pb  Pre-bend
| br  Bend release
| pbr Pre-bend release
| brb Bend release bend

************************************
Добавлено: 06.05.2012
Другие материалы по этой песне:
  • Аккорды и текст

Страница создана 06.05.2012
http://primanota.ru/dear-landlord/goodbye-to-oakland-chords.htm
Привет, Гость.
Предлагаем пройти революционный курс по гитаре.
Подарок от PrimaNota.Ru, забирай!