PrimaNota.ru - самый крупный в мире бесплатный архив песенных текстов, аккордов, табулатур и нот


Deap Vally - Six Feet Under - таба, видео

Регистрация Запомнить меня
Войти через:  Facebook Google Twitter Vk Yandex Mail.ru

Deap Vally - Six Feet Under - таба, видео

Печатать
Просмотров: 77
Авторы: Lindsey Troy, Julie Edwards

Deap Vally - Six Feet Under

Track 11 on the album Sistronix (2013).


Intro:

E--x----x----x----x------|
b--x----x----x----x------|
G--x----x----x----x------|
D--x----x----x----x------|     x1
A--7----5----2----10-----|
E--5----3----0----8------|

Verse 1:

E--x-x----x-x----x-x----x-x--|
b--x-x----x-x----x-x----x-x--|
G--x-x----x-x----x-x----x-x--|
D--x-x----x-x----x-x----x-x--|     x4
A--7-7----5-5----2-2----1010-|
E--5-5----3-3----0-0----8-8--|

Chorus:

E--x----x----x----x-----------|
b--x----x----x----x-----------|
G--x----x----x----x-----------|
D--x----x----x----x-----------|          x4
A--7----5----2----10----------|
E--5----3----0----8-----------|

Verse 2:

E--x-x----x-x----x-x----x-x--|
b--x-x----x-x----x-x----x-x--|
G--x-x----x-x----x-x----x-x--|
D--x-x----x-x----x-x----x-x--|     x4
A--7-7----5-5----2-2----1010-|
E--5-5----3-3----0-0----8-8--|

Chorus:

E--x----x----x----x-----------|
b--x----x----x----x-----------|
G--x----x----x----x-----------|
D--x----x----x----x-----------|          x4
A--7----5----2----10----------|
E--5----3----0----8-----------|

Solo:

E--x-------------------|
b--x-------------------|
G--x-------------------|
D--x-------------------|      Very faintly
A--7-------------------|
E--5-------------------|

E--x-------------------|
b--x-------------------|
G--x-------------------|
D--x-------------------|      Very faintly
A--7-------------------|
E--5-------------------|

Not sure about this bit yet, still working on it....

Chorus:

E--x----x----x----x--------------|
b--x----x----x----x--------------|
G--x----x----x----x--------------|
D--x----x----x----x          x11-|
A--7----5----2----10-------------|
E--5----3----0----8--------------|

E--x----x----x----x~~~~|
b--x----x----x----x~~~~|
G--x----x----x----x~~~~|
D--x----x----x----x~~~~|      x11
A--7----5----2----10~~~|
E--5----3----0----8~~~~|

************************************

| /   slide up
| \   slide down
| h   hammer-on
| p   pull-off
| ~   vibrato
| +   harmonic
| x   Mute note
| b   Bend
| pb  Pre-bend
| br  Bend release
| pbr Pre-bend release
| brb Bend release bend

************************************
Добавлено: 15.08.2015
Вам также может быть интересно:
Другие материалы по этой песне:
  • Аккорды и текст

Страница создана 15.08.2015
http://primanota.ru/deap-vally/six-feet-under-chords.htm
Привет, Гость.
Предлагаем пройти революционный курс по гитаре.
Подарок от PrimaNota.Ru, забирай!