PrimaNota.ru - самый крупный в мире бесплатный архив песенных текстов, аккордов, табулатур и нот


Dean Wareham - The Dancer Dissappears - таба, видео

Регистрация Запомнить меня
Войти через:  Facebook Google Twitter Vk Yandex Mail.ru

Dean Wareham - The Dancer Dissappears - таба, видео

Печатать
Просмотров: 169
Уроки эстрадного вокала в Санкт-Петербурге
-------------------------------------------------------------------------------
                   The dancer disappears by Dean Wareham
-------------------------------------------------------------------------------
Tabbed by: Jacob Cunningham Bell

First tab, don't think many people know this guy but it sounds decent

E-mail: jacobcunninghambell@gmail.com

Tuning:standard

 / -  slide up

INTRO-

        e|----8---8---8---8---8---8-8--8--8------10--10--10--10---|
        B|-----8---8---8---8---8-----8--8--8-8/12--12--12--12-----|
        G|------9---9---10--10--10----9--9------------------------|
        D|--------------------------------------------------------|
        A|--------------------------------------------------------|
        E|--------------------------------------------------------|

        e|----5---5---5---5---5---5-------------3---3---3---------|
        B|-----5---5---5---6---6---6-6---6---6---3---3---3--------|
        G|------5---5-------5---5-----7---7---7---4---4-----------|
        D|-----------------------------7---7----------------------|
        A|--------------------------------------------------------|
        E|--------------------------------------------------------|

listen to Dean on you tube and it will help you understand the timing,i 
have just done this by ear and i think parts may be wrong but it sounds
accurate! 














************************************
Добавлено: 26.07.2015
Другие материалы по этой песне:
  • Аккорды и текст

Страница создана 26.07.2015
http://primanota.ru/dean-wareham/dancer-dissappears-chords.htm
Привет, Гость.
Предлагаем пройти революционный курс по гитаре.
Подарок от PrimaNota.Ru, забирай!