PrimaNota.ru - самый крупный в мире бесплатный архив песенных текстов, аккордов, табулатур и нот


Dean Martin - King Of The Road - текст песни, бас-таба, видео

Регистрация Запомнить меня
Войти через:  Facebook Google Twitter Vk Yandex Mail.ru

Dean Martin - King Of The Road - текст песни, бас-таба, видео

Печатать
Просмотров: 127
Уроки эстрадного вокала в Санкт-Петербурге
Авторы музыки: Roger Miller
Авторы текста: Roger Miller
-------------------------------------------------------------------------------
                           King of The Road - Dean Martin
-------------------------------------------------------------------------------
Tabbed by: CorporalCrunch
Tuning: Standard


Intro:
G|----------------------------4-5--5-4-2-0-|
D|----0-2--0-3--2-3-2-3--4-5---------------|
A|-3---------------------------------------|
E|-----------------------------------------|


Verse 1: "Trailer for sale or rent..."
G|----------------------------4-5--5-4-2-0-|---------------------------------------|
D|----0-2--0-3--2-3-2-3--4-5---------------|----0-2--0-3--2-3--4--5------5-3--2-0--|
A|-3---------------------------------------|-3-------------------------------------|
E|-----------------------------------------|---------------------------------------|
"Two hours of pushin' broom..."
G|----------------------------4-5--5-4-2-0-|-----------------------------5-5-4--2-0--|
D|----0-2--0-3--2-3-2-3--4-5---------------|----0-2--0-3--2-3-2-3-4-5----------------|
A|-3---------------------------------------|-3---------------------------------------|
E|-----------------------------------------|-----------------------------------------|


Verse 2: "Third boxcar, midnight train..."
G|----------------------------4-5--5-4-2-0-|-----------------------------------------|
D|----0-2--0-3--2-3-2-3--4-5---------------|----0-2--0-3--2-3-2-3-4-5------5-3--2-0--|
A|-3---------------------------------------|-3---------------------------------------|
E|-----------------------------------------|-----------------------------------------|
"I smoke old stogies I have found.."
G|----------------------------4-5--5-4-2-0-|-----------------------------------------|
D|----0-2--0-3--2-3-2-3--4-5---------------|----0-2--0-3--2-3-2-3-4-5------5-3--2-0--|
A|-3---------------------------------------|-3---------------------------------------|
E|-----------------------------------------|-----------------------------------------|


Verse 3: "I know every engineer on every train"
G|----------------------------4-5--5-4-2-0-|---------------------------------------|
D|----0-2--0-3--2-3-2-3--4-5---------------|----0-2--0-3--2-3--4--5------5-3--2-0--|
A|-3---------------------------------------|-3-------------------------------------|
E|-----------------------------------------|---------------------------------------|


Verse 4: "Trailer for sale or rent..."
G|----------------------------4-5--5-4-2-0-|---------------------------------------|
D|----0-2--0-3--2-3-2-3--4-5---------------|----0-2--0-3--2-3--4--5------5-3--2-0--|
A|-3---------------------------------------|-3-------------------------------------|
E|-----------------------------------------|---------------------------------------|
"Two hours of pushin' broom..."
G|----------------------------4-5--5-4-2-0-|-----------------------------|
D|----0-2--0-3--2-3-2-3--4-5---------------|----0-2--0-3--2-3--4--5------|
A|-3---------------------------------------|-3---------------------------|
E|-----------------------------------------|-----------------------------|

"King of the Road"

"King of the Road"


Outro: "King of the Road"
G|-5-4--2-0----------|
D|----------3-2-0----|
A|----------------3--|
E|-------------------|

===============================================================================
Добавлено: 30.05.2016
Другие материалы по этой песне:
  • Аккорды и текст

Страница создана 27.06.2012
http://primanota.ru/dean-martin/king-of-the-road-chords.htm
Привет, Гость.
Предлагаем пройти революционный курс по гитаре.
Подарок от PrimaNota.Ru, забирай!