PrimaNota.ru - самый крупный в мире бесплатный архив песенных текстов, аккордов, табулатур и нот


Dean Lickyer - Never Let You Go - таба, видео

Регистрация Запомнить меня
Войти через:  Facebook Google Twitter Vk Yandex Mail.ru

Dean Lickyer - Never Let You Go - таба, видео

Печатать
Просмотров: 101
Уроки эстрадного вокала в Санкт-Петербурге
-------------------------------------------------------------------------------
                            Never Let You Go - Dean Lickyer
-------------------------------------------------------------------------------
Tabbed by: [:Harry:]
Email:Harry-Dippo@hotmail.co.uk

Tuning: Eb Standard

Awesome band
Dean Lickyer: http://profile.myspace.com/index.cfm?fuseaction=user.viewprofile&friendID=24474840
 or  www.deanlickyer.com

First Tab so go easy.

Peace Out

e|----------------------------------------------------||
B|---15-14--------------------------------------------||
G|---------16--15--14---------------------------------||   x8
D|-14-14-14--14--14--14-/17b--14------14~-------------||
A|--------------------------------17------------------||
E|----------------------------------------------------||

e|----------------------------------||       |--------------------------|
B|----------------------------------||       |--------------------------|
G|--9---7/9-------------------------||       |-----------777777---10-9--|
D|--9---7/9---/8-8--8-8---7--5------||  x4   |--555555---777777---10-9--|
A|--7---5/7---/8-8--8-8---7--5------||       |--555555---555555---8--7--|
E|------------/6-6--6-6---5--3------||       |--333333------------------|

 You can just play 5 > 4 > 2 on the E string with some bends but I find the chords better.

e|----------------------------------||
B|----------------------------------||
G|--9-----------------7-8-9---------||  x4  
D|--9----------7/8----7-8-9---------||
A|--7----------7/8----5-6-7---------||
E|-------------5/6------------------||

3rd and 4th time rock out!

e|----------------------------------||
B|----------------------------------||
G|---------------------------9999---||
D|---------------------------7777---||
A|-------10-----------12-----7777---||     
E|---8-8----8---10-10---10---0000---||       


e|----------------------------------------||    
B|----------------------------------------||      
G|----------------------------------------||      
D|------------------------------------9b--||
A|-------10-----------12--------10--------||     
E|---8-8----8---10-10---10--8-8----8------||


I will do the whole thing at some point but its a amazing song that very few no about :D
Добавлено: 17.07.2012
Вам также может быть интересно:
Другие материалы по этой песне:
  • Аккорды и текст

Страница создана 17.07.2012
http://primanota.ru/dean-lickyer/never-let-you-go-chords.htm
Привет, Гость.
Предлагаем пройти революционный курс по гитаре.
Подарок от PrimaNota.Ru, забирай!