PrimaNota.ru - самый крупный в мире бесплатный архив песенных текстов, аккордов, табулатур и нот


Dean Friedman - Ariel - аккорды и текст, видео

Регистрация Запомнить меня
Войти через:  Facebook Google Twitter Vk Yandex Mail.ru

Dean Friedman - Ariel - аккорды и текст, видео

Печатать
Просмотров: 182
Уроки эстрадного вокала в Санкт-Петербурге
Ariel
Dean Friedman
ARIEL
Dean Friedman from self titled album
chords from J. Robson [J@laffingAcademy.com]

Intro Bass Guitar
G-------------------------------------------------
D----2--0--------2--0--------2--0--------2--0-----
A----------2-----------2-----------2-----------2--
E--3----------3-----------3-----------3-----------
[G D]Way on the other...
[Am G]Deep in the bosom...
[G D]I met a young girl...
[Am G]Tears on my pillow...
[B7 G B]Standing by the water fall...
[G A]friends of BA...She was collecting 
[D]quarters...
[A D]She was looking for.....
 
VERSE 2 same chords
She was a Jewish girl...

Refrain
[G]A[Bm]A--ri[Am]el [G]A[Bm]A--ri[Am]el [D]

the back up singer line is something like...
E-------------------------------
B--0----------b3--p0-----0------
G-----h2--p0----------2-----0---
D-------------------------------
A-------------------------------
E------------------------------- 

VERSE 3 followed by refrain
We had a little time....

Saxaphone solo over verse chords
VERSE 4
I took her home with me...

refrain repeated again a step higher

[G]A[Bm]A--ri[Am]el [G]A[Bm]A--ri[Am]el
[A]A[C#m]A--ri[Bm]el [A]A[C#m]A--ri[Bm]el

[sax lick] 
E----------------------
B-----------5--h4--3---
G--2-h1--0-------------
D----------------------
A----------------------
E----------------------

[and back to the key of G verse chords]

Way on the other side...
Tears on my pillow and Ave Maria
Tears on my pillow and Ave Maria
Tears on my pillow and Ave Maria [Last time no G]
     
Добавлено: 30.10.2013
Другие материалы по этой песне:
  • Аккорды и текст

Страница создана 05.03.2012
http://primanota.ru/dean-friedman/ariel-chords.htm
Привет, Гость.
Предлагаем пройти революционный курс по гитаре.
Подарок от PrimaNota.Ru, забирай!