PrimaNota.ru - самый крупный в мире бесплатный архив песенных текстов, аккордов, табулатур и нот


Deals Death - Fortified - таба, видео

Регистрация Запомнить меня
Войти через:  Facebook Google Twitter Vk Yandex Mail.ru

Deals Death - Fortified - таба, видео

Печатать
Просмотров: 258
-------------------------------------------------------------------------------
                             Fortified - Deals Death
-------------------------------------------------------------------------------
Tabbed by: Godssent2, http://www.youtube.com/watch?v=PTPwIRaRxZM <--my cover
Email: ^ youtube account (inbox me for questions)

Tuning: Full Step Down
6:D, 5:G, 4:C, 3:F, 2:A, 1:D

               THIS IS MY FIRST TAB SO IT MIGHT NOT BE 100% ACCURATE
                              
                               Intro Both Guitars x2
D|---------------------------------------------------------------------------|
A|---------------------------------------------------------------------------|
F|---------------------------------------------------------------------------|
C|---------------------------------555555/8888-------------------------------|
G|---------------------------------555555/8888-------------------------------|
D|757-0-0-0-0-878-0-5-8758-757-0-0-333335/5555-757-0-0-0-0-878-0-5-8758-757-

D|---------------------------------------------------------------------------|
A|---------------------------------------------------------------------------|
F|---------------------------------------------------------------------------|
C|----555555/8888------------------------------------------------------------|
G|----555555/8888------------------------------------------------------------|
D|0-0-333335/5555------------------------------------------------------------|
                             LEAD Intro Chorus 1
D|757-0-0-0-0-878-0-5-8758---------------------------------------------------|
A|---------------------------------------------------------------------------|
F|---------------------------------------------------------------------------|
C|---------------------------------------------------------------------------|
G|---------------------------------------------------------------------------|
D|---------------------------------------------------------------------------|
                                 LEAD Chorus 1
D|757-0-0-0-0-878-0-5-8758-757-0-0-0-0-0-0-75-75-75-757-0-0-0-0-878-0-5-8758-|
A|-------------------------------------------8--8----------------------------|
F|---------------------------------------------------------------------------|
C|---------------------------------------------------------------------------|
G|---------------------------------------------------------------------------|
D|---------------------------------------------------------------------------|
                            Rhythm Chorus 1
D|---------------------------------------------------------------------------|
A|---------------------------------------------------------------------------|
F|---------------------------------------------------------------------------|
C|2-----------4------------5--------------7---------2----------4-------------|
G|2-----------4------------5--------------7---------2----------4-------------|
D|0-----------2------------3--------------5---------0----------2-------------|
                                 LEAD Chorus 1
D|757-0-0-0-0-0-0-78108787-----757-0-0-0-0-878-0-5-8758-757-0-0-0-0-0-0-75-|
A|------------------------1087--------------------------------------------8--|
F|---------------------------------------------------------------------------|
C|---------------------------------------------------------------------------|
G|---------------------------------------------------------------------------|
D|---------------------------------------------------------------------------|
                            Rhythm Chorus 1 
D|---------------------------------------------------------------------------|
A|---------------------------------------------------------------------------|
F|5---------------7------------2-----------4------------5---------------7----|
C|5---------------7------------2-----------4------------5---------------7----|
G|3---------------5------------0-----------2------------3---------------5----|
D|---------------------------------------------------------------------------|
                                 LEAD Chorus 1
D|75-75-757-0-0-0-0-878-0-5-8758-757-0-0-0-0-0-0-78108787--------------------|
A|--8----------------------------------------------------10875p--------------|
F|---------------------------------------------------------------------------|
C|---------------------------------------------------------------------------|
G|---------------------------------------------------------------------------|
D|---------------------------------------------------------------------------|
                            Rhythm Chorus 1
D|---------------------------------------------------------------------------|
A|---------------------------------------------------------------------------|
F|---------------------------------------------------------------------------|
C|------2-----------4------------5---------------7---------------------------|
G|------2-----------4------------5---------------7---------------------------|
D|------0-----------2------------3---------------5---------------------------|
                                 LEAD+Rhythm Verse 1 x2
D|---------------------------------------------------------------------------|
A|---------------------------------------------------------------------------|
F|---------------------------------------------------------------------------|
C|2--------------------------3-2---------------------------------------------|
G|2--------------------------3-2---------------------------------------------|    Palm Mute
D|0-0x0x0x0x0x0x0x0x0x0x0x0x-1-0-0x0x0x0x-78573513-0x0x0x0x0x0x0x0x0x0x0x0x-|

D|---------------------------------------------------------------------------|
A|---------------------------------------------------------------------------|
F|---------------------------------------------------------------------------|
C|3-2------------------------------------------------------------------------|
G|3-2----------5h7-8h75h7-repeat once more-----------------------------------|
D|1-0-0x0x0x0x---------------------------------------------------------------|
                                LEAD Verse 1 Bridge
D|0-0-8-7-7h8-0-0-8-7-7h8-8-781087--787---107---0-0-8-7-7h8-0-0-8-7-55557777-|
A|--------------------------------10---108---108-----------------------------|
F|---------------------------------------------------------------------------|
C|---------------------------------------------------------------------------|
G|---------------------------------------------------------------------------|
D|---------------------------------------------------------------------------|
                                Rhythm Verse 1 Bridge
D|---------------------------------------------------------------------------|
A|---------------------------------------------------------------------------|
F|-----------------------2-222222222222222222222-----------------------------|
C|3-3333333333333333333332-2222222222222222222223------------------2-2--3-3--|
G|3-3333333333333333333330-0000000000000000000003------------------2-2--3-3--|
D|1-111111111111111111111-----------------------1------------------0-0--1-1--|
                                LEAD Verse 1 Bridge
D|1212121210101010-----------------------------------------------------------|
A|---------------------------------------------------------------------------|
F|---------------------------------------------------------------------------|
C|---------------------------------------------------------------------------|
G|---------------------------------------------------------------------------|
D|---------------------------------------------------------------------------|
                                Rhythm Verse 1 Bridge
D|---------------------------------------------------------------------------|
A|---------------------------------------------------------------------------|
F|5-5-----4-4-----------------------------------------------------------------|
C|5-5-----4-4----------------------------------------------------------------|
G|3-3-----2-2----------------------------------------------------------------|
D|---------------------------------------------------------------------------|
                               LEAD+Rhythm Verse 2 x2
D|---------------------------------------------------------------------------|
A|---------------------------------------------------------------------------|
F|---------------------------------------------------------------------------|
C|2--------------------------3-2---------------------------------------------|
G|2--------------------------3-2---------------------------------------------|    Palm Mute
D|0-0x0x0x0x0x0x0x0x0x0x0x0x-1-0-0x0x0x0x-78573513-0x0x0x0x0x0x0x0x0x0x0x0x-|

D|---------------------------------------------------------------------------|
A|---------------------------------------------------------------------------|
F|---------------------------------------------------------------------------|
C|3-2------------------------------------------------------------------------|
G|3-2----------5h7-8h75h7-repeat once more-----------------------------------|
D|1-0-0x0x0x0x---------------------------------------------------------------|

LEAD Verse 1 Bridge
D|0-0-8-7-7h8-0-0-8-7-7h8-8-781087--787---107---0-0-8-7-7h8-0-0-8-7-55557777-|
A|--------------------------------10---108---108-----------------------------|
F|---------------------------------------------------------------------------|
C|---------------------------------------------------------------------------|
G|---------------------------------------------------------------------------|
D|---------------------------------------------------------------------------|
                                Rhythm Verse 1 Bridge
D|---------------------------------------------------------------------------|
A|---------------------------------------------------------------------------|
F|-----------------------2-222222222222222222222-----------------------------|
C|3-3333333333333333333332-2222222222222222222223------------------2-2--3-3--|
G|3-3333333333333333333330-0000000000000000000003------------------2-2--3-3--|
D|1-111111111111111111111-----------------------1------------------0-0--1-1--|
                                LEAD Verse 1 Bridge
D|1212121210101010-----------------------------------------------------------|
A|---------------------------------------------------------------------------|
F|---------------------------------------------------------------------------|
C|---------------------------------------------------------------------------|
G|---------------------------------------------------------------------------|
D|---------------------------------------------------------------------------|
                                Rhythm Verse 1 Bridge
D|---------------------------------------------------------------------------|
A|---------------------------------------------------------------------------|
F|5-5-----4-4-----------------------------------------------------------------|
C|5-5-----4-4----------------------------------------------------------------|
G|3-3-----2-2----------------------------------------------------------------|
D|---------------------------------------------------------------------------|
                           Intro Chorus 1(lead and rhythm)
D|---------------------------------------------------------------------------|
A|---------------------------------------------------------------------------|
F|--------------------------------5---7--------------------------------------|
C|2---0---2-3-2---5---2---0---2-3-5---7--------------------------------------|
G|2---0---2-3-2---5---2---0---2-3-3---5--------------------------------------|
D|0---x-------0---3---0---x--------------x2----------------------------------|

                                 LEAD Chorus 2
D|757-0-0-0-0-0-0-78108787-----757-0-0-0-0-878-0-5-8758-757-0-0-0-0-0-0-75-|
A|------------------------1087--------------------------------------------8--|
F|---------------------------------------------------------------------------|
C|---------------------------------------------------------------------------|
G|---------------------------------------------------------------------------|
D|---------------------------------------------------------------------------|
                            Rhythm Chorus 2 
D|---------------------------------------------------------------------------|
A|---------------------------------------------------------------------------|
F|5---------------7------------2-----------4------------5---------------7----|
C|5---------------7------------2-----------4------------5---------------7----|
G|3---------------5------------0-----------2------------3---------------5----|
D|---------------------------------------------------------------------------|
                                 LEAD Chorus 2
D|75-75-757-0-0-0-0-878-0-5-8758-757-0-0-0-0-0-0-78108787--------------------|
A|--8----------------------------------------------------10875p--------------|
F|---------------------------------------------------------------------------|
C|---------------------------------------------------------------------------|
G|---------------------------------------------------------------------------|
D|---------------------------------------------------------------------------|
                            Rhythm Chorus 2
D|---------------------------------------------------------------------------|
A|---------------------------------------------------------------------------|
F|---------------------------------------------------------------------------|
C|------2-----------4------------5---------------7---------------------------|
G|------2-----------4------------5---------------7---------------------------|
D|------0-----------2------------3---------------5---------------------------|
    LEAD Bridge x1 then Rhythm plays the same notes x2
D|---------------------------------------------------------------------------|
A|---------------------------------------------------------------------------|
F|---------------------------------------------------------------------------|
C|----------6-5-4-----------8-7-6-5----------6-5-4----------------------------|
G|---5-8-----7-6-5---5-8-----9-8-7-6---5-8----7-6-5---5-8--------------------|
D|0-0---0-0-------0-0---0-0---------0-0---0-0------0-0----78573513-----------|
                                SOLO LEAD
D|15-12-10h12-0-0-15-12-10h12-0-0-17-15-12h15-0-0-17-15-12h15-0-0-12---------|
A|------------------------------------------------------------------15121512-|
F|---------------------------------------------------------------------------|
C|---------------------------------------------------------------------------|
G|---------------------------------------------------------------------------|
D|---------------------------------------------------------------------------|
                                  SOLO RHYTHM
D|---------------------------------------------------------------------------|
A|---------------------------------------------------------------------------|
F|------------------------------------------------7--------------------------|
C|2-------------------------------5---------------7---------------2----------|
G|2-------------------------------5---------------5---------------2----------|
D|0-------------------------------3-------------------------------0----------|
                                  SOLO LEAD
D|--------------------------12p----------------------------------------------|
A|--12-----------------------------------------------------------------------|
F|14--14121412-------12-16---------------------------------------------------|
C|------------12-14----------------------------------------------------------|
G|---------------------------------------------------------------------------|
D|---------------------------------------------------------------------------|
                                  SOLO RHYTHM (same tune for both lead parts)
D|---------------------------------------------------------------------------|
A|---------------------------------------------------------------------------|
F|--------------------------7------------------------------------------------|
C|------------5-------------7------------------------------------------------|
G|------------5-------------5------------------------------------------------|
D|------------3--------------------------------------------------------------|
                                  SOLO LEAD 2
D|---------------------------------------------------151412------151412------|
A|12p-15h12--15h12--15h12--15h12---13p-121312----15p-------151412-----151412-|
F|---------14-----14-----14-----14-----------1412----------------------------|
C|---------------------------------------------------------------------------|
G|---------------------------------------------------------------------------|
D|---------------------------------------------------------------------------|

D|191715------191715---------------------------------------------------------|
A|------191715------191715--17-0-15-0-12-10h12-0-12-0-12h15-0-15-0-17p--------|
F|---------------------------------------------------------------------------|
C|---------------------------------------------------------------------------|
G|---------------------------------------------------------------------------|
D|---------------------------------------------------------------------------|

                          Intro Chorus 2 (lead and rhythm)
D|---------------------------------------------------------------------------|
A|---------------------------------------------------------------------------|
F|--------------------------------5---7--------------------------------------|
C|2---0---2-3-2---5---2---0---2-3-5---7--------------------------------------|
G|2---0---2-3-2---5---2---0---2-3-3---5--------------------------------------|
D|0---x-------0---3---0---x--------------x2----------------------------------|

                                 LEAD Chorus 3
D|757-0-0-0-0-0-0-78108787-----757-0-0-0-0-878-0-5-8758-757-0-0-0-0-0-0-75-|
A|------------------------1087--------------------------------------------8--|
F|---------------------------------------------------------------------------|
C|---------------------------------------------------------------------------|
G|---------------------------------------------------------------------------|
D|---------------------------------------------------------------------------|
                            Rhythm Chorus 3 
D|---------------------------------------------------------------------------|
A|---------------------------------------------------------------------------|
F|5---------------7------------2-----------4------------5---------------7----|
C|5---------------7------------2-----------4------------5---------------7----|
G|3---------------5------------0-----------2------------3---------------5----|
D|---------------------------------------------------------------------------|
                                 LEAD Chorus 3
D|75-75-757-0-0-0-0-878-0-5-8758-757-0-0-0-0-0-0-78108787--------------------|
A|--8----------------------------------------------------10875p--------------|
F|---------------------------------------------------------------------------|
C|---------------------------------------------------------------------------|
G|---------------------------------------------------------------------------|
D|---------------------------------------------------------------------------|
                            Rhythm Chorus 3
D|---------------------------------------------------------------------------|
A|---------------------------------------------------------------------------|
F|---------------------------------------------------------------------------|
C|------2-----------4------------5---------------7---------------------------|
G|------2-----------4------------5---------------7---------------------------|
D|------0-----------2------------3---------------5---------------------------|

Hope you liked the tab :)
************************************

| /   slide up
| \   slide down
| h   hammer-on
| p   pull-off
| ~   vibrato
| +   harmonic
| x   Mute note
| b   Bend
| pb  Pre-bend
| br  Bend release
| pbr Pre-bend release
| brb Bend release bend

************************************
Добавлено: 30.07.2012
Другие материалы по этой песне:

Страница создана 29.06.2012
http://primanota.ru/deals-death/fortified-chords.htm
Привет, Гость.
Предлагаем пройти революционный курс по гитаре.
Подарок от PrimaNota.Ru, забирай!