PrimaNota.ru - самый крупный в мире бесплатный архив песенных текстов, аккордов, табулатур и нот


Deafheaven - Come Back - таба, видео

Регистрация Запомнить меня
Войти через:  Facebook Google Twitter Vk Yandex Mail.ru

Deafheaven - Come Back - таба, видео

Печатать
Просмотров: 66
-------------------------------------------------------------------------------
                        Come Back (intro) - Deafheaven
-------------------------------------------------------------------------------
Tabbed by: bryankeller
E-mail: bryan.keller@me.com

First tab I've ever made, i think it's right

e|---------------------|---------------------|---------------------|---------------------|
B|---------------------|---------------------|---------------------|---------------------|
G|-9-------------------|------10---10---9----|-9-------------------|------10---10---9----|
D|-10------------------|------10---10---10---|-10------------------|------10---10---10---|
A|-0-------------------|------0----0----0----|-0-------------------|------0----0----0----|
D|---------------------|---------------------|---------------------|---------------------|


e|---------------------|---------------------|---------------------|---------------------|
B|---------------------|---------------------|---------------------|---------------------|
G|-9----7----7---------|------9----9----7----|-7-------------------|-9----9----10---9----|
D|-10---9----9---------|------10---10---9----|-9-------------------|-10---9----9----10---|
A|-0----0----0---------|------0----0----0----|-0-------------------|-0----0----0----0----|
D|---------------------|---------------------|---------------------|---------------------|


e|---------------------|---------------------|---------------------|---------------------|
B|------13-------------|-13---13---12---12---|-13---13-------------|-13---13---12---12---|
G|---------------------|-9----9----10---10---|-9----9--------------|-9----9----10---10---|
D|---------------------|-10---10---9----9----|-10---10-------------|-10---10---9----9----|
A|---------------------|-0----0----0----0----|-0----0--------------|-0----0----0----0----|
D|---------------------|---------------------|---------------------|---------------------|


e|---------------------|---------------------|---------------------|---------------------|
B|------8--------------|------10---10---6----|-6-------------------|-5-------------------|
G|------7--------------|------7----7----7----|-7-------------------|-7-------------------|
D|------9--------------|------9----9----9----|-9-------------------|-9-------------------|
A|------0--------------|------0----0----0----|-0-------------------|-0-------------------|
D|---------------------|---------------------|---------------------|---------------------|

hate-me.bandcamp.com
Добавлено: 21.03.2016
Другие материалы по этой песне:
  • Аккорды и текст

Страница создана 21.03.2016
http://primanota.ru/deafheaven/come-back-chords.htm
Привет, Гость.
Предлагаем пройти революционный курс по гитаре.
Подарок от PrimaNota.Ru, забирай!