PrimaNota.ru - самый крупный в мире бесплатный архив песенных текстов, аккордов, табулатур и нот


Deaf Havana - Waves - бас-таба, видео

Регистрация Запомнить меня
Войти через:  Facebook Google Twitter Vk Yandex Mail.ru

Deaf Havana - Waves - бас-таба, видео

Печатать
Просмотров: 85
Intro - Come in at 0:06
G|---------------------------------------------------------|
D|---------------------------------------------------------|
A|---------------------------------------------------------|
D|1-1-1-1-1-1-1-1-1-5-5-5-5-5-5-5-5-1-1-1-1-1-1-1-1-1-11111|

Verse Pt 1
"Coming of age, after you blacked out my eyes..."
G|-------------------------------|
D|-------------------------------|
A|-------------------------------|
D|55555555555555-1111111111111111| x2

Verse Pt 2
"and after everything that I have fought..."
G|-------------------------------|
D|-------------------------------|
A|-------------------------------|
D|55555555555777777-1111111111111| x2

Chorus 
"but you still stop the beat in my chest..."
G|----------------------------------|----------|
D|----------------------------------|----------|
A|----------------------------------|----------|
D|1111111-5555555-33333333333333-x4-|-11-00-3-5|

Verse Pt 1
Chorus

Bridge - I'm not gonna tab the entire section out, but you get
the idea. Just keep to the beat of the kick drum, with a slide
to the 3rd fret and back, and that octave on the high D string
now and then. 
G|--------------------------------------------------------|
D|-------------------------------------------------------5|
A|--------------------------------------------------------|
D|5--5-5-5--5--5-5-5--5--5-5-5/3\5--5-5-5--5--5-5-5--5--5-|

Breakdown
G|--------------------------|----------|
D|--------------------------|----------|
A|--------------------------|----------|
D|5-1-3-5--5-1-3-5--1---3 x4|5(Hold)-xx|

Then play the chorus section, with an alternate ending
G|---------|
D|---------|
A|---------|
D|11-00-3-1| 

There's no bass in the last 1:23 sythnthy end, but you could just 
follow the chord progression.
I like to roll off some of the tone playing this bit, up to you though.
G|--------------------------------------|
D|--------------------------------------|
A|--------------------------------------|
D|01--5--3---01--5--3---01--5--3--etc...|
Добавлено: 03.02.2014
Другие материалы по этой песне:
  • Аккорды и текст

Страница создана 03.02.2014
http://primanota.ru/deaf-havana/waves-chords.htm
Привет, Гость.
Предлагаем пройти революционный курс по гитаре.
Подарок от PrimaNota.Ru, забирай!