PrimaNota.ru - самый крупный в мире бесплатный архив песенных текстов, аккордов, табулатур и нот


Deaf Havana - I Will Try - таба, видео

Регистрация Запомнить меня
Войти через:  Facebook Google Twitter Vk Yandex Mail.ru

Deaf Havana - I Will Try - таба, видео

Печатать
Просмотров: 130
Уроки эстрадного вокала в Санкт-Петербурге
I will try - Deaf Havana

Tuning: Drop D

Intro
(0:00-0:16)

|-2-----------------2----------------------|
|-3-----2---3-------3-----2---3------5-----|
|-4-----2---4-------4-----2---4------6-----|
|-4-x5--4---5-------4-x5--4---5------7-----|
|-2-----x---x-x8----2-----x---x-x4---x-x4--|
|-------4---5-------------4---5------7-----|

|-2-----------------2------------|
|-3-----2---3-------3-----2---3--|
|-4-----2---4-------4-----2---4--| 
|-4-x5--4---5-------4-x5--4---5--|
|-2-----x---x-x8----2-----x---x--|
|-------4---5-------------4---5--|



Verse/bridge
(0:17-0:33)

|---------------------------------------|
|---10---10---10---10-------------------|
|-7----7----7----7-------7---7---7---7--|
|----------------------9---9---9---9----|
|---------------------------------------|
|---------------------------------------|

|--------7------------------------------|
|---10-------10---10--------------------|
|-7----7---7----7-------7---6-7---7-----|
|---------------------9---9-----9---9---|
|---------------------------------------|
|---------------------------------------|

|---------7-----------------------------|
|---10--------10---10-------------------|
|-7----7----7----7-------7---7---7---7--|
|----------------------9---9---9---9----|
|---------------------------------------|
|---------------------------------------|

|----------------------------------|
|----------------------------------|
|------6----7-7-7-7-7-7-7-6/7-7----|
|-7-9------------------------------|
|----------------------------------|
|----------------------------------|



Verse
(0:34-0:49)

|-2-----------------2----------------------|
|-3-----2---3-------3-----2---3------5-----|
|-4-----2---4-------4-----2---4------6-----|
|-4-x5--4---5-------4-x5--4---5------7-----|
|-2-----x---x-x8----2-----x---x-x4---x-x4--|
|-------4---5-------------4---5------7-----|

|-2-----------------------|
|-3-----2---3-----5-------|
|-4-----2---4-----6-------|
|-4-x5--4---5-----7-------|
|-2-----x---x-x8--x-x16---|
|-------4---5-----7-------|



Bridge
(0:50-1:05)

|-------------------------------------------------------|
|-------------------------------------------------------|
|-4-x8---7-x8----11-x8----6-x8----4-x8----7-x8----6-x16-|
|-------------------------------------------------------|
|-------------------------------------------------------|
|-------------------------------------------------------|



Chorus
(1:06-1:21)

|-2-----------------2----------------------|
|-3-----2---3-------3-----2---3------5-----|
|-4-----2---4-------4-----2---4------6-----|
|-4-x5--4---5-------4-x5--4---5------7-----|
|-2-----x---x-x8----2-----x---x-x4---x-x4--|
|-------4---5-------------4---5------7-----|

|-2-----------------------|
|-3-----2---3-----5-------|
|-4-----2---4-----6-------|
|-4-x5--4---5-----7-------|
|-2-----x---x-x8--x-x16---|
|-------4---5-----7-------|



Bridge
(1:22-1:29)

|-5-----5-----5---|    |-0-----0-----0---|
|---7-----7-----7-|    |---2-----2-----2-|
|-----7-----7-----|    |-----2-----2-----|
|-----------------|    |-----------------|
|-----------------| x2 |-----------------| x2
|-----------------|    |-----------------|



Chorus
(1:30-2:02)

|-------2------------------------2-----------|
|-3-----3-----7-----5------3-----3-----5-----|
|-4-----4-----7-----6------4-----4-----6-----|
|-5-----4-x4--7-x4--7------5-----4-x4--7-----|
|-x-x4--2-----5-----x-x4---x-x4--2-----x-x8--|
|-5-----------------7------5-----------7-----|

(The second part played with faster strumming)
|-------2------------------------2-----------|
|-3-----3-----7-----5------3-----3-----5-----|
|-4-----4-----7-----6------4-----4-----6-----|
|-5-----4-x8--7-x8--7------5-----4-x8--7-----|
|-x-x8--2-----5-----x-x8---x-x8--2-----x-x16-|
|-5-----------------7------5-----------7-----|



Bridge
(2:03-2:33)

|-2-----------------------------------------|
|-3-----3------5-----5/----------3-----5----|
|-4-----4------6-----6/----------4-----6----|
|-4-x8--5------7-----7/--2-2--4--5-----7----|
|-2-----x-x8---x-x4--x/--2-2--4--x-x4--x-x4-|
|-------5------7-----7/--2-2--4--5-----7----|

|-2---------------------------------------|
|-3-----3------5-----5/----------3--3--3--|
|-4-----4------6-----6/----------4--4--4--|
|-4-x8--5------7-----7/--2-2--4--5--5--5--|
|-2-----x-x8---x-x4--x/--2-2--4--x--x--x--|
|-------5------7-----7/--2-2--4--5--5--5--|


Chorus
(2:52-3:08)

|-------2------------------------2-----------|
|-3-----3-----7-----5------3-----3-----5-----|
|-4-----4-----7-----6------4-----4-----6-----|
|-5-----4-x8--7-x8--7------5-----4-x8--7-----|
|-x-x8--2-----5-----x-x8---x-x8--2-----x-x16-|
|-5-----------------7------5-----------7-----|


Outro
(3:09-3:42)

1st Guitar (Uses the "Delay" effect)
|---------------------------------|
|---------------------------------|
|-7----6----4----6---7----6----4--|
|---------------------------------|
|---------------------------------| x4
|---------------------------------|


2nd Guitar comes in at 3:24 Also uses the "Delay" effect

|-----5--5--------5--5--------5----5---5---|
|-5-----------5-----------5-7--------------|
|---7--7--------7--7-------------4---4---4-|
|------------------------------------------|
|------------------------------------------|
|------------------------------------------|

Made by Stianerdal
Добавлено: 05.12.2013
Другие материалы по этой песне:
  • Аккорды и текст

Страница создана 05.12.2013
http://primanota.ru/deaf-havana/i-will-try-chords.htm
Привет, Гость.
Предлагаем пройти революционный курс по гитаре.
Подарок от PrimaNota.Ru, забирай!