PrimaNota.ru - самый крупный в мире бесплатный архив песенных текстов, аккордов, табулатур и нот


Deaf Havana - Drive All Night English Hearts - таба, видео

Регистрация Запомнить меня
Войти через:  Facebook Google Twitter Vk Yandex Mail.ru

Deaf Havana - Drive All Night English Hearts - таба, видео

Печатать
Просмотров: 106
-------------------------------------------------------------------------------
                Drive All Night (English Hearts) - Deaf Havana
-------------------------------------------------------------------------------
Tabbed by: Charlie
E-mail: Charlos2012@live.com

Tuning: Standard
Capo: 2nd Fret

Intro/Verse:

e|---------------------------------------------------------------------------|
B|-------1-----1------1-----1-----1-------1-----1------1-----1-----1---------|
G|-----0-----0------0-----0-----0-------0-----0------0-----0-----0-----------|
D|---3-----2--------------------------3-----2--------------------------------|
A|----------------2-----3--------------------------2-----3-------------------|
E|----------------------------1--------------------------------1-------------|

e|---------------------------------------------------------------------------|
B|-------1-----1------1-----1-----1-------1-----1------1-----1-----1---------|
G|-----0-----0------0-----0-----0-------0-----0------0-----0-----0-----------|
D|---3-----2-----------------------------------------------------------------|
A|----------------2-----3-------------------0------------3-----3-------------|
E|----------------------------1-------3------------1-------------------------|

Chorus:

e|---------------------------------------------------------------------------|
B|-------1-----1------1-----1-----1-------1-----1------1-----1-----1---------|
G|-----0-----0------0-----0-----0-------0-----0------0-----0-----0-----------|
D|---------------------------------------------------------------------------|
A|---------0------------3-----3-------------0------------3-----3-------------|
E|---3------------1-------------------3------------1-------------------------|

e|---------------------------------------------------------------------------|
B|-------1-----1------1-----1-----1-------1-----1------1-----1-----1---------|
G|-----0-----0------0-----0-----0-------0-----0------0-----0-----0-----------|
D|---------------------------------------------------------------------------|
A|---------0------------3-----3-------------0------3-----3-----3-------------|
E|---3------------1-------------------3--------------------------------------|
Добавлено: 05.09.2015
Вам также может быть интересно:
Другие материалы по этой песне:
  • Аккорды и текст

Страница создана 05.09.2015
http://primanota.ru/deaf-havana/drive-all-night-english-hearts-chords.htm
Привет, Гость.
Предлагаем пройти революционный курс по гитаре.
Подарок от PrimaNota.Ru, забирай!