PrimaNota.ru - самый крупный в мире бесплатный архив песенных текстов, аккордов, табулатур и нот


Deadsy - Razor Love - текст песни, бас-таба, видео

Регистрация Запомнить меня
Войти через:  Facebook Google Twitter Vk Yandex Mail.ru

Deadsy - Razor Love - текст песни, бас-таба, видео

Печатать
Просмотров: 131
Deadsy
Razor Love
Phantasmagore
Drop D Tuning

On Part C where there asterisks, play those notes openly along with the song.  Since 
difficult to write out the actual rhythm, just use your ears.

Comments, suggestions, and ratings are all welcome.  Thanks and enjoy! :)

Part A - 0:01 - (x1)
G|-----------------------|
D|-----------------------|
A|----0-0---0------------|
D|--0-----3---32-00--0---|

Part B - 0:08 - (x3)
G|-------------------------------------------|
D|-------------------------------------------|
A|--222222-4-55555-42-0-0000-------------4---|
D|---------------------------54-222222-0-----|

Part C - 0:27 - (x1)
G|---------|
D|---------|
A|--2------|
D|-----0---|
    *  *

Part D - 0:34 - (x1)
G|-------2--------------|--------------------|
D|--0------2------------|--0-----------------|
A|----0-----------------|----0-0-------------|
D|------------2-0-0-0---|--------2—2-0-0-0---|

Part B - 0:48 - (x3)

Part C - 1:08 - (x1)

Part D - 1:15 - (x1)

Part E - 1:30 - (x1)
G|------------------------------------------|
D|---------0--------------------------------|
A|--444-00---00000---0----------------------|
D|-----------------2---22-00000-0000-0000---|

G|-------------------------------------------|
D|--000----0---------------------------------|
A|------00---00000---0-----------------------|
D|-----------------2---22-00-000-0000-0000---|

Part F - 1:43 - (x1)
G|-------------------------------------------------|
D|-------------------------------------------------|
A|--------0----------------------------------------|
D|--22222---2-4-44444-6-4-0000-00000000-00000000---|

G|--------------------------------------------------|
D|--------------------------------------------------|
A|--------0---------------4-444-44444444-44444444---|
D|--22222---2-4-44444-6-4---------------------------|

G|-------------------------------------------------|
D|-------------------------------------------------|
A|--------0----------------------------------------|
D|--22222---2-4-44444-6-4-0000-00000000-00000000---|

Part G - 2:00 - (x1)
G|---------------------------------------------------------------------|
D|-----------------------------------------------------------5---------|
A|------------------0----------------------44444444-44444444---5-5-5---|
D|--22222222-2222-2---2-4-444-44444444-444-----------------------------|

Part E - 2:17 - (x1)

Part H - 2:31 - (x1)
G|-------------------------------------------|
D|-------------------------------------------|
A|--444-00000-000----0-----------------------|
D|----------------22---2-200-00000000-0000---|

G|-------------------------------------------|
D|-------------------------------------------|
A|--555-00000-000----0-----------------------|
D|----------------22---2-200-00000000-0000---|

Part I - 2:44 - (x2)
G|------------------------------------|------------------------|
D|------------------------------------|------------------------|
A|--40-50-0---0-----------------------|--50-50-0---0-----------|
D|----------2---2-200-00000000-0000---|----------2---2-200-0---|

Ending - 2:58 - (x1)
G|----------|
D|----------|
A|--4-0-2---|
D|----------|
Добавлено: 09.07.2012
Другие материалы по этой песне:
  • Аккорды и текст

Страница создана 09.07.2012
http://primanota.ru/deadsy/razor-love-chords.htm
Привет, Гость.
Предлагаем пройти революционный курс по гитаре.
Подарок от PrimaNota.Ru, забирай!