PrimaNota.ru - самый крупный в мире бесплатный архив песенных текстов, аккордов, табулатур и нот


Deadsy - Babes In Abyss - текст песни, таба, бас-таба, видео

Регистрация Запомнить меня
Войти через:  Facebook Google Twitter Vk Yandex Mail.ru

Deadsy - Babes In Abyss - текст песни, таба, бас-таба, видео

Печатать
Просмотров: 182
drop: A(A E A D G C)

if you would like to correct me or send me any hints or would just like to talk to me my 
address is icecoldheart1992@hotmail.com
this is my third tab ever put on the net,and im putting this and many others on the net 
you almost NEVER see any deadsy tabs with the correct tuning and such,alright here we 
in abyss

after drums guitar1 will start off with this
|----------------------------|
|----------------------------|
|----------------------------|
|----------------------------|
|1/13\1----------------------|
|1/13\1-0-0-0-0-0-0-0-0-0-0-0|
within a few moments guitar2 will come in with the same riff

heres the main riff that guitar2 plays
|---------| |-------------|
|---------| |-------------|
|---------| |-------------|
|---------| |-------------|
|9-4-6-2-2| |9-4-6-2-6-5-4|
|7-2-4-0-0| |7-2-4-0-4-3-2|(switch to this riff on final time played)

guitar1 plays this riff after guitar2 plays his riff twice
|----------------------------------------------|
|--------9-9-9--------9-9-9----------8-8-------|
|10-10-10-----10-10-10-----10-10-8-8----11-11-9|
|----------------------------------------------|
|----------------------------------------------|
|----------------------------------------------|

verse riff
|-------|
|-------|
|-------|
|-------|
|-------|
|2-1-9-8|almost gallop pick(strumming not precise)

prechorus
|------------------------|
|------------------------|
|------------------------|
|------------------------|
|------------------------|
|10-11-12-14H5-10-5-7H8-3|

guitar2 plays like he did before
|---------| |-------------|
|---------| |-------------|
|---------| |-------------|
|---------| |-------------|
|9-4-6-2-2| |9-4-6-2-6-5-4|
|7-2-4-0-0| |7-2-4-0-4-3-2|(switch to this riff on final time played)

instead of playing like in the intro start right away
|----------------------------------------------|
|--------9-9-9--------9-9-9----------8-8-------|
|10-10-10-----10-10-10-----10-10-8-8----11-11-9|
|----------------------------------------------|
|----------------------------------------------|
|----------------------------------------------|

verse riff
|-------|
|-------|
|-------|
|-------|
|-------|
|2-1-9-8|
then throw this in and repeat verse riff again
|---------------------------|
|---------------------------|
|---------------------------|
|---------------------------|
|---------------------------|
|2-2-2-2-2-2-0-0-0-0-0-0-0-0|

bridge
|------------||-------------------------|
|------------||-------------------------|
|------------||-------------------------|
|------------||-------------------------|
|5-10-2-7-6-5||-------------------------|
|3-8--0-5-4-3||2-2-2-2-2-2-2-2-2-2-2-2-0|

|---------| |-------------|
|---------| |-------------|
|---------| |-------------|
|---------| |-------------|
|9-4-6-2-2| |9-4-6-2-6-5-4|
|7-2-4-0-0| |7-2-4-0-4-3-2|(switch to this riff on final time played)

keep movin with that..
|----------------------------------------------|
|--------9-9-9--------9-9-9----------8-8-------|
|10-10-10-----10-10-10-----10-10-8-8----11-11-9|
|----------------------------------------------|
|----------------------------------------------|
|----------------------------------------------|

guitar2 plays this for an outro
|-----------------------------------------------------------|
|-----------------------------------------------------------|
|-----------------------------------------------------------|
|-----------------------------------------------------------|
|------------------------------0-0-0-0-0-0-0-0-0-0-0-0-0-0-2|
|0-0-0-0-0-0-0-0-0-0-0-0-0-0-0-0-0-0-0-0-0-0-0-0-0-0-0-0-0-0|

guitar1 plays this for the outro layered above guitar2
|----------------------------------------------------------------------|
|11-11-9-9-12-12-9-9-11-11-9-9-12-12-9-9-------------------------------|
|---------------------------------------12-12-10-10-13-13-10-0-12-12-10|
|----------------------------------------------------------------------|
|----------------------------------------------------------------------|
|----------------------------------------------------------------------|
Добавлено: 05.07.2012
Другие материалы по этой песне:
  • Аккорды и текст

Страница создана 10.03.2012
http://primanota.ru/deadsy/babes-in-abyss-chords.htm
Привет, Гость.
Предлагаем пройти революционный курс по гитаре.
Подарок от PrimaNota.Ru, забирай!