PrimaNota.ru - самый крупный в мире бесплатный архив песенных текстов, аккордов, табулатур и нот


Deadsoul Tribe - Spiders And Flies - текст песни, бас-таба, видео

Регистрация Запомнить меня
Войти через:  Facebook Google Twitter Vk Yandex Mail.ru

Deadsoul Tribe - Spiders And Flies - текст песни, бас-таба, видео

Печатать
Просмотров: 84
                          Spiders And Flies                                 


                                                           Deadsoul Tribe
Bass
Dropped C Tuning (C,G,C,F)


     E   E  E  Q    E     E  E  E  E  E  E     E   E  E  Q    E   
F||--------------------|--------------------|--------------------|
C||--------------------|--------------------|--------------------|
G||--3h--5-----5-------|--6-----3-----6-----|--3h--5-----5-------|
C||---------0-------0--|-----0-----0-----0--|---------0-------0--|


  E  E  E  E  E  E     E   E  E  Q    E     E  E  E  E  E  E   
--------------------|--------------------|--------------------|
--------------------|--------------------|--------------------|
--8-----6-----3-----|--3h--5-----5-------|--6-----3-----6-----|
-----0-----0-----0--|---------0-------0--|-----0-----0-----0--|


  E   E  E  Q    E     E  E  E  E  Q       E   E  E  Q    E   
--------------------|-------------------|--------------------|
--------------------|-------------------|--------------------|
--3h--5-----5-------|-------------------|--3h--5-----5-------|
---------0-------0--|--8--0--7--0--6----|---------0-------0--|


  E  E  E  E  E  E     E   E  E  Q    E     E  E  E  E  E  E   
--------------------|--------------------|--------------------|
--------------------|--------------------|--------------------|
--6-----3-----6-----|--3h--5-----5-------|--8-----6-----3-----|
-----0-----0-----0--|---------0-------0--|-----0-----0-----0--|


  E   E  E  Q    E     E  E  E  E  E  E     E   E  E  Q    E   
--------------------|--------------------|--------------------|
--------------------|--------------------|--------------------|
--3h--5-----5-------|--6-----3-----6-----|--3h--5-----5-------|
---------0-------0--|-----0-----0-----0--|---------0-------0--|


  E  E  E  E  Q         E   E  E  Q    E     E  E  E  E  E  E   
-------------------||---------------------|--------------------|
-------------------||*--------------------|--------------------|
-------------------||*--3h--5-----5-------|--6-----3-----6-----|
--8--0--7--0--6----||----------0-------0--|-----0-----0-----0--|


  E   E  E  Q    E     E  E  E  E  E  E     E   E  E  Q    E   
--------------------|--------------------|--------------------|
--------------------|--------------------|--------------------|
--3h--5-----5-------|--8-----6-----3-----|--3h--5-----5-------|
---------0-------0--|-----0-----0-----0--|---------0-------0--|


  E  E  E  E  E  E     E   E  E  Q    E     E  E  E  E  Q       
--------------------|--------------------|--------------------||
--------------------|--------------------|-------------------*||
--6-----3-----6-----|--3h--5-----5-------|-------------------*||
-----0-----0-----0--|---------0-------0--|--8--0--7--0--6-----||


   E  Q    Q    E     E  Q    Q    E     E  Q    Q    E     E  Q    Q    E   
-------------------|------------------|------------------|------------------|
*------------------|------------------|------------------|------------------|
*------------------|------------------|------------------|------------------|
---0--0----0----0--|--0--0----0----0--|--0--0----0----0--|--0--0----0----0--|


  E  Q    Q    E     E  Q    Q    E     E  Q    Q    E     Q    Q    Q       
------------------|------------------|------------------|------------------||
------------------|------------------|------------------|-----------------*||
------------------|------------------|------------------|-----------------*||
--0--0----0----0--|--0--0----0----0--|--0--0----0----0--|--8----7----6-----||


   E  Q    Q    E     E  Q    Q    E     E  Q    Q    E     E  Q    Q    E   
-------------------|------------------|------------------|------------------|
*------------------|------------------|------------------|------------------|
*------------------|------------------|------------------|------------------|
---0--0----0----0--|--0--0----0----0--|--0--0----0----0--|--0--0----0----0--|


  E  Q    Q    E     E  Q    Q    E     E  Q    Q    E     E  E  E  E  Q       
------------------|------------------|------------------|--------------------||
------------------|------------------|------------------|-------------------*||
------------------|------------------|------------------|-------------------*||
--0--0----0----0--|--0--0----0----0--|--0--0----0----0--|--8--0--7--0--6-----||


   H.              H.              H.              Q    Q    Q     
----------------|---------------|---------------|-----------------|
*---------------|---------------|---------------|-----------------|
*---------------|--5------------|---------------|--5----3---------|
---0------------|--L------------|--6------------|------------6----|


  E  E  E  Q    E     E  E  E  Q    E     E  E  E  Q    E   
-------------------|-------------------|-------------------|
-------------------|-------------------|-------------------|
-------------------|-------------------|-------------------|
--5--5-----5-------|--5--5-----5-------|--3--3-----3-------|


  E   E  E   E  Q          E  Q    Q    E     E  Q    Q    E   
----------------------||-------------------|------------------|
---------------------*||*------------------|------------------|
---------------------*||*------------------|------------------|
--3s--5--5s--6--6-----||---0--0----0----0--|--0--0----0----0--|


  E  Q    Q    E     E  Q    Q    E     E  Q    Q    E     E  Q    Q    E   
------------------|------------------|------------------|------------------|
------------------|------------------|------------------|------------------|
------------------|------------------|------------------|------------------|
--0--0----0----0--|--0--0----0----0--|--0--0----0----0--|--0--0----0----0--|


  E  Q    Q    E     Q    Q    Q          E  Q    Q    E     E  Q    Q    E   
------------------|------------------||-------------------|------------------|
------------------|-----------------*||*------------------|------------------|
------------------|-----------------*||*------------------|------------------|
--0--0----0----0--|--8----7----6-----||---0--0----0----0--|--0--0----0----0--|


  E  Q    Q    E     E  Q    Q    E     E  Q    Q    E     E  Q    Q    E   
------------------|------------------|------------------|------------------|
------------------|------------------|------------------|------------------|
------------------|------------------|------------------|------------------|
--0--0----0----0--|--0--0----0----0--|--0--0----0----0--|--0--0----0----0--|


  E  Q    Q    E     E  E  E  E  Q         E  Q    Q    E     E  Q    Q    E   
------------------|--------------------||------------------|------------------|
------------------|-------------------*||------------------|------------------|
------------------|-------------------*||------------------|------------------|
--0--0----0----0--|--8--0--7--0--6-----||--0--0----0----0--|--0--0----0----0--|


  E  Q    Q    E     E  Q    Q    E     E  Q    Q    E     E  Q    Q    E   
------------------|------------------|------------------|------------------|
------------------|------------------|------------------|------------------|
------------------|------------------|------------------|------------------|
--0--0----0----0--|--0--0----0----0--|--0--0----0----0--|--0--0----0----0--|


  E  Q    Q    E     E  E  E  E  Q         H.              H.            
------------------|-------------------||----------------|---------------|
------------------|-------------------||*---------------|---------------|
------------------|-------------------||*---------------|--5------------|
--0--0----0----0--|--8--0--7--0--6----||---0------------|--L------------|


  H.              Q    Q    Q       E  E  E  Q    E     E  E  E  Q    E   
---------------|-----------------|-------------------|-------------------|
---------------|-----------------|-------------------|-------------------|
---------------|--5----3---------|-------------------|-------------------|
--6------------|------------6----|--5--5-----5-------|--5--5-----5-------|


  E  E  E  Q    E     E   E  E   E  Q          E  Q    Q    E   
-------------------|----------------------||-------------------|
-------------------|---------------------*||*------------------|
-------------------|---------------------*||*------------------|
--3--3-----3-------|--3s--5--5s--6--6-----||---0--0----0----0--|


  E  Q    Q    E     E  Q    Q    E     E  Q    Q    E     E  Q    Q    E   
------------------|------------------|------------------|------------------|
------------------|------------------|------------------|------------------|
------------------|------------------|------------------|------------------|
--0--0----0----0--|--0--0----0----0--|--0--0----0----0--|--0--0----0----0--|


  E  Q    Q    E     E  Q    Q    E     Q    Q    Q          E  Q    Q    E   
------------------|------------------|------------------||-------------------|
------------------|------------------|-----------------*||*------------------|
------------------|------------------|-----------------*||*------------------|
--0--0----0----0--|--0--0----0----0--|--8----7----6-----||---0--0----0----0--|


  E  Q    Q    E     E  Q    Q    E     E  Q    Q    E   3x  E  Q    Q    E   
------------------|------------------|-------------------||------------------|
------------------|------------------|------------------*||------------------|
------------------|------------------|------------------*||------------------|
--0--0----0----0--|--8--8----8----8--|--0--0----0----0---||--0--0----0----0--|


  E  Q    Q    E     E  Q    Q    E     E  Q    Q    E     E  Q    Q    E   
------------------|------------------|------------------|------------------|
------------------|------------------|------------------|------------------|
------------------|------------------|------------------|------------------|
--0--0----0----0--|--8--8----8----8--|--0--0----0----0--|--0--0----0----0--|


  E  Q    Q    E     E  Q    Q    E     E  Q    Q    E     H.            
------------------|------------------|------------------|---------------|
------------------|------------------|------------------|---------------|
------------------|------------------|------------------|---------------|
--0--0----0----0--|--0--0----0----0--|--0--0----0----0--|--0------------|


  H.              H.              H.              H        Q     
---------------|---------------|---------------|----------------|
---------------|---------------|---------------|----------------|
---------------|---------------|---------------|----------------|
--L------------|--L------------|--L------------|----------------|


  H        Q       H        Q       H        Q       H        Q     
----------------|----------------|----------------|----------------|
----------------|----------------|----------------|----------------|
----------------|----------------|----------------|----------------|
----------------|----------------|----------------|----------------|


  H        Q       H        Q       H        Q         H        Q     
----------------|----------------|----------------||-----------------|
----------------|----------------|----------------||*----------------|
----------------|----------------|----------------||*----------------|
----------------|----------------|----------------||-----------------|


  H        Q       H        Q       H        Q       H        Q     
----------------|----------------|----------------|----------------|
----------------|----------------|----------------|----------------|
----------------|----------------|----------------|----------------|
----------------|----------------|----------------|----------------|


  H        Q       H        Q       H        Q          H        Q     
----------------|----------------|-----------------||-----------------|
----------------|----------------|----------------*||*----------------|
----------------|----------------|----------------*||*----------------|
----------------|----------------|-----------------||-----------------|


  H        Q       H        Q       H        Q       H        Q     
----------------|----------------|----------------|----------------|
----------------|----------------|----------------|----------------|
----------------|----------------|----------------|----------------|
----------------|----------------|----------------|----------------|


  H        Q       H        Q       H        Q         H        Q     
----------------|----------------|-----------------||----------------|
----------------|----------------|----------------*||----------------|
----------------|----------------|----------------*||----------------|
----------------|----------------|-----------------||----------------|


  H        Q       H        Q       H        Q       H.            
----------------|----------------|----------------|---------------|
----------------|----------------|----------------|---------------|
----------------|----------------|----------------|---------------|
----------------|----------------|----------------|--0------------|


  Q    Q    Q       H.              Q    Q    Q       H.            
-----------------|---------------|-----------------|---------------|
-----------------|---------------|-----------------|---------------|
--5----7----8----|--3------------|--L----5----7----|---------------|
--0--------------|---------------|-----------------|--5------------|


  H.              H.              H.              H.            
---------------|---------------|---------------|---------------|
--5------------|---------------|--8------------|---------------|
---------------|---------------|---------------|---------------|
--L------------|--8------------|--L------------|--0------------|


  Q    Q    Q       H.              Q    Q    Q       H.            
-----------------|---------------|-----------------|---------------|
-----------------|---------------|-----------------|---------------|
--5----7----8----|--3------------|--L----5----7----|---------------|
--0--------------|---------------|-----------------|--5------------|


  H.              H.              H.              E   E  E  Q    E   
---------------|---------------|---------------|--------------------|
--5------------|---------------|--8------------|--------------------|
---------------|---------------|---------------|--3h--5-----5-------|
--L------------|--8------------|--L------------|---------0-------0--|


  E  E  E  E  E  E     E   E  E  Q    E     E  E  E  E  E  E   
--------------------|--------------------|--------------------|
--------------------|--------------------|--------------------|
--6-----3-----6-----|--3h--5-----5-------|--8-----6-----3-----|
-----0-----0-----0--|---------0-------0--|-----0-----0-----0--|


  E   E  E  Q    E     E  E  E  E  E  E     E   E  E  Q    E   
--------------------|--------------------|--------------------|
--------------------|--------------------|--------------------|
--3h--5-----5-------|--6-----3-----6-----|--3h--5-----5-------|
---------0-------0--|-----0-----0-----0--|---------0-------0--|


  E  E  E  E  Q       E   E  E  Q    E     E  E  E  E  E  E   
-------------------|--------------------|--------------------|
-------------------|--------------------|--------------------|
-------------------|--3h--5-----5-------|--6-----3-----6-----|
--8--0--7--0--6----|---------0-------0--|-----0-----0-----0--|


  E   E  E  Q    E     E  E  E  E  E  E     E   E  E  Q    E   
--------------------|--------------------|--------------------|
--------------------|--------------------|--------------------|
--3h--5-----5-------|--8-----6-----3-----|--3h--5-----5-------|
---------0-------0--|-----0-----0-----0--|---------0-------0--|


  E  E  E  E  E  E     E   E  E  Q    E     E  E  E  E  Q     
--------------------|--------------------|-------------------|
--------------------|--------------------|-------------------|
--6-----3-----6-----|--3h--5-----5-------|-------------------|
-----0-----0-----0--|---------0-------0--|--8--0--7--0--6----|


  E   E  E  Q    E     E  E  E  E  E  E     E   E  E  Q    E   
--------------------|--------------------|--------------------|
--------------------|--------------------|--------------------|
--3h--5-----5-------|--6-----3-----6-----|--3h--5-----5-------|
---------0-------0--|-----0-----0-----0--|---------0-------0--|


  E  E  E  E  E  E     E   E  E  Q    E     E  E  E  E  E  E   
--------------------|--------------------|--------------------|
--------------------|--------------------|--------------------|
--8-----6-----3-----|--3h--5-----5-------|--6-----3-----6-----|
-----0-----0-----0--|---------0-------0--|-----0-----0-----0--|


  E   E  E  Q    E     E  E  E  E  Q       E  Q    Q    E     E  Q    Q    E   
--------------------|-------------------|------------------|------------------|
--------------------|-------------------|------------------|------------------|
--3h--5-----5-------|-------------------|------------------|------------------|
---------0-------0--|--8--0--7--0--6----|--0--0----0----0--|--0--0----0----0--|


  E  Q    Q    E     E  Q    Q    E     E  Q    Q    E     E  Q    Q    E   
------------------|------------------|------------------|------------------|
------------------|------------------|------------------|------------------|
------------------|------------------|------------------|------------------|
--0--0----0----0--|--0--0----0----0--|--0--0----0----0--|--0--0----0----0--|


  E  Q    Q    E     Q    Q    Q       E  Q    Q    E     E  Q    Q    E   
------------------|-----------------|------------------|------------------|
------------------|-----------------|------------------|------------------|
------------------|-----------------|------------------|------------------|
--0--0----0----0--|--8----7----6----|--0--0----0----0--|--0--0----0----0--|


  E  Q    Q    E     E  Q    Q    E     E  Q    Q    E     E  Q    Q    E   
------------------|------------------|------------------|------------------|
------------------|------------------|------------------|------------------|
------------------|------------------|------------------|------------------|
--0--0----0----0--|--0--0----0----0--|--0--0----0----0--|--0--0----0----0--|


  E  Q    Q    E     Q    Q    Q       E   E  E  Q    E  E  E   
------------------|-----------------|--------------------------|
------------------|-----------------|--------------------------|
------------------|-----------------|--3h--5-----5-------------|
--0--0----0----0--|--8----7----6----|---------0-------0--0--0--|


  E  E  E  E  E  E     E   E  E  Q    E  E  E     E  E  E  E  E  E   
--------------------|--------------------------|--------------------|
--------------------|--------------------------|--------------------|
--6-----3-----6-----|--3h--5-----5-------------|--8-----6-----3-----|
-----0-----0-----0--|---------0-------0--0--0--|-----0-----0-----0--|


  E   E  E  Q    E  E  E     E  E  E  E  E  E     E   E  E  Q.      
--------------------------|--------------------|-------------------|
--------------------------|--------------------|-------------------|
--3h--5-----5-------------|--6-----3-----6-----|--3h--5-----5------|
---------0-------0--0--0--|-----0-----0-----0--|---------0---------|


  Q    Q    Q       H        Q      
-----------------|----------------||
-----------------|----------------||
-----------------|----------------||
--8----7----6----|----------------||




Duration Legend
---------------
W - whole
H - half
Q - quarter
E - 8th
S - 16th
T - 32nd
X - 64th
. - note dotted
|-n-|  - n-tuplets


Tablature Legend
----------------
L - tied note
x - dead note
g - grace note
(n) - ghost note
> - accentuded note
NH - natural harmonic
AH - artificial harmonic
TH - tapped harmonic
SH - semi harmonic
PH - pitch harmonic
h - hammer on
p - pull off
b - bend
br - bendRelease
pb - preBend
pbr - preBendRelease
brb - bendReleaseBend
\n/ - tremolo bar dip
\n - tremolo bar dive
-/n - tremolo bar Release up
/n\ - tremolo bar inverted dip
/n - tremolo bar return
-\n - tremolo bar Release down
S - shift slide
s - legato slide
/ -  slide into from below or out of upwards
\ -  slide into from above or out of downwards
~ - vibrato
W - wide vibrato
tr - trill
TP - tremolo picking
T - tapping
S - slap
P - pop
< - fade in
^ - brush up
v - brush down
Добавлено: 28.04.2012
Другие материалы по этой песне:

Страница создана 27.02.2012
http://primanota.ru/deadsoul-tribe/spiders-and-flies-chords.htm
Привет, Гость.
Предлагаем пройти революционный курс по гитаре.
Подарок от PrimaNota.Ru, забирай!