PrimaNota.ru - самый крупный в мире бесплатный архив песенных текстов, аккордов, табулатур и нот


Deadsoul Tribe - Love Of Hate - текст песни, таба, видео

Регистрация Запомнить меня
Войти через:  Facebook Google Twitter Vk Yandex Mail.ru

Deadsoul Tribe - Love Of Hate - текст песни, таба, видео

Печатать
Просмотров: 100
     PM PM   PM   PM     PM   PM   PM   tr     
     S  S  S S  S S  S S S  S S  S S  S E      
D||-------------------------------------------|
A||-------------------------------------------|
F||-------------------------------------------|
C||--------7----8----5-7----3----5----3-2(3)--|
G||-------------------------------------------|
C||--0--0----0----0------0----0----0----------|


  PM PM   PM   PM     PM   PM   PM   tr     
  S  S  S S  S S  S S S  S S  S S  S E      
-------------------------------------------|
-------------------------------------------|
-------------------------------------------|
--------7----8----5-7----3----5----3-2(3)--|
-------------------------------------------|
--0--0----0----0------0----0----0----------|


  PM PM   PM   PM     PM   PM   PM   tr     
  S  S  S S  S S  S S S  S S  S S  S E      
-------------------------------------------|
-------------------------------------------|
-------------------------------------------|
--------7----8----5-7----3----5----3-2(3)--|
-------------------------------------------|
--0--0----0----0------0----0----0----------|


  PM PM   PM   PM     PM   PM   PM   tr     
  S  S  S S  S S  S S S  S S  S S  S E      
-------------------------------------------|
-------------------------------------------|
-------------------------------------------|
--------7----8----5-7----3----5----3-2(3)--|
-------------------------------------------|
--0--0----0----0------0----0----0----------|


  PM PM   PM   PM     PM   PM   PM   tr     
  S  S  S S  S S  S S S  S S  S S  S E      
-------------------------------------------|
-------------------------------------------|
-------------------------------------------|
--------7----8----5-7----3----5----3-2(3)--|
-------------------------------------------|
--0--0----0----0------0----0----0----------|


  PM PM   PM   PM     PM   PM   PM   tr     
  S  S  S S  S S  S S S  S S  S S  S E      
-------------------------------------------|
-------------------------------------------|
-------------------------------------------|
--------7----8----5-7----3----5----3-2(3)--|
-------------------------------------------|
--0--0----0----0------0----0----0----------|


  PM PM   PM   PM     PM   PM   PM   tr     
  S  S  S S  S S  S S S  S S  S S  S E      
-------------------------------------------|
-------------------------------------------|
-------------------------------------------|
--------7----8----5-7----3----5----3-2(3)--|
-------------------------------------------|
--0--0----0----0------0----0----0----------|


  PM PM   PM   PM     PM   PM   PM   tr     
  S  S  S S  S S  S S S  S S  S S  S E      
-------------------------------------------|
-------------------------------------------|
-------------------------------------------|
--------7----8----5-7----3----5----3-2(3)--|
-------------------------------------------|
--0--0----0----0------0----0----0----------|


  PM PM   PM   PM     PM   PM   PM   tr     
  S  S  S S  S S  S S S  S S  S S  S E      
-------------------------------------------|
-------------------------------------------|
-------------------------------------------|
--------7----8----5-7----3----5----3-2(3)--|
-------------------------------------------|
--0--0----0----0------0----0----0----------|


  PM PM   PM   PM     PM   PM   PM   tr     
  S  S  S S  S S  S S S  S S  S S  S E      
-------------------------------------------|
-------------------------------------------|
-------------------------------------------|
--------7----8----5-7----3----5----3-2(3)--|
-------------------------------------------|
--0--0----0----0------0----0----0----------|


  PM PM   PM   PM     PM   PM   PM   tr     
  S  S  S S  S S  S S S  S S  S S  S E      
-------------------------------------------|
-------------------------------------------|
-------------------------------------------|
--------7----8----5-7----3----5----3-2(3)--|
-------------------------------------------|
--0--0----0----0------0----0----0----------|


                              tr      
  S S S S S S S S S S S S S S E       
------------------------------------||
------------------------------------||
------------------------------------||
------7---8---5-7---3---5---3-2(3)--||
------------------------------------||
--0-0---0---0-----0---0---0---------||




Duration Legend
---------------
W - whole
H - half
Q - quarter
E - 8th
S - 16th
T - 32nd
X - 64th
. - note dotted
|-n-|  - n-tuplets


Tablature Legend
----------------
L - tied note
x - dead note
g - grace note
(n) - ghost note
> - accentuded note
NH - natural harmonic
AH - artificial harmonic
TH - tapped harmonic
SH - semi harmonic
PH - pitch harmonic
h - hammer on
p - pull off
b - bend
br - bendRelease
pb - preBend
pbr - preBendRelease
brb - bendReleaseBend
\n/ - tremolo bar dip
\n - tremolo bar dive
-/n - tremolo bar Release up
/n\ - tremolo bar inverted dip
/n - tremolo bar return
-\n - tremolo bar Release down
S - shift slide
s - legato slide
/ -  slide into from below or out of upwards
\ -  slide into from above or out of downwards
~ - vibrato
W - wide vibrato
tr - trill
TP - tremolo picking
T - tapping
S - slap
P - pop
< - fade in
^ - brush up
v - brush down
Добавлено: 05.03.2012
Вам также может быть интересно:
Другие материалы по этой песне:

Страница создана 05.03.2012
http://primanota.ru/deadsoul-tribe/love-of-hate-chords.htm
Привет, Гость.
Предлагаем пройти революционный курс по гитаре.
Подарок от PrimaNota.Ru, забирай!