PrimaNota.ru - самый крупный в мире бесплатный архив песенных текстов, аккордов, табулатур и нот


Deadmau5 - Somewhere Up Here - таба, бас-таба, видео

Регистрация Запомнить меня
Войти через:  Facebook Google Twitter Vk Yandex Mail.ru

Deadmau5 - Somewhere Up Here - таба, бас-таба, видео

Печатать
Просмотров: 338
Новый альбом группы 'Черный Кузнец' по культовому сериалу 'Сверхъестественное'!


                   ***   SOMEWHERE UP HERE   ***

                            by Deadmau5



tabbed by:    Dropdeee
tuning:       Drop-C   (C G C F A D)
effects:      delay, fuzz/distortion
video:        https://www.youtube.com/watch?v=6slM3SmHoSM


FIRST RIFF    - played once with minimal tone and distorion.

SECOND RIFF   - played throughout with tone & fuzz/distortion,
                  occasionally dropping the 8's at the start.

OUTRO         - subbed for piano notes




 [Intro]

D|-----------|-----------|------------------|--------------------------------|
A|-----------|-----------|------------------|--------------------------------|
F|-----------|-----------|------------------|--------------------------------|
C|-----------|-----------|------------------|--------------------------------| play 3 times 
G|-----------|-----------|------------------|--------------------------------| 
C|---5-------|---8-------|---3--------------|---3--------------5-------------|




 [First riff]

D|------------------------------------|--------------------------------------|
A|------------------------------------|--------------------------------------|
F|------------------------------------|--------------------------------------|
C|------------------------------------|--------------------------------------|
G|-------------------1--5-------------|----------------------3---------------|
C|---3h5--5p0-----3-----5----3h5------|---3p0--0h3------0h3--3---------------|
                                                                               play all 4
D|------------------------------------|--------------------------------------| bars once
A|------------------------------------|--------------------------------------|
F|------------------------------------|--------------------------------------|
C|------------------------------------|--------------------------------------|
G|-------------------1--5---------3---|----------------------3---------------|
C|---3h5--5p0-----3-----5----3h5--3---|---3p0--0h3------0h3--3----3h5--------|




 [Second riff]

D|------------------------------------|--------------------------------------|
A|------------------------------------|--------------------------------------|
F|------------------------------------|--------------------------------------|
C|---8--------------------------------|--------------------------------------|
G|---8-------------------1--5---------|----------------------3---------------|
C|--8----3h5--5p0-----3-----5----3h5--|---3p0--0h3------0h3--3----3h5p0------|  played throughout,
                                                                                occasionally drop  
D|------------------------------------|--------------------------------------|  the 8's at the start
A|------------------------------------|--------------------------------------|
F|------------------------------------|--------------------------------------|
C|------------------------------------|--------------------------------------|
G|--8-----------------1--5---------3--|----------------------3---------------|
C|--8---3h5-5p0----3-----5----3h5--3--|---3p0--0h3------0h3--3----3h5--------|




 [Outro] 

D|--------------|------------------|----------------------|------------------|           
A|-----0--------|-----3------------|-----6---3------------|---------0--------|
F|--------------|---------5--------|-------------2--------|-----5------------|
C|--------------|-----0------------|----------------------|------------------|
G|-----2--------|------------------|----------------------|------------------|
C|--------------|------------------|---------3------------|---------5--------|


D|----------|-------5-----|---------------|------------------|---------------|
A|----------|---8---------|---11----------|---10---3---------|-------0-------| for best sound, bar the
F|---7------|-------------|--------9------|------------2-----|---5-----------| 5th and 8th frets to
C|----------|-------------|---------------|------------------|---------------| allow each note to ring 
G|----------|-------------|---------------|------------------|---------------| 
C|---5------|-------------|---8-----------|--------3---------|-------5-------|


D|------------|----------------|-----------------|---------------------------|
A|------------|----------------|----------3------|-----0---6-----------------|
F|-----7------|-----7---9------|-----10----------|------------7--5--4--------|
C|------------|----------------|-----------------|---------------------5--3--|
G|------------|----------------|-----------------|---------------------------|
C|-----5------|-----8----------|----------3------|-----5---------------------|


D|----------|-------5-----|---------------|------------------|---------------|
A|----------|---8---------|---11----------|---10---3---------|-------0-------|
F|---7------|-------------|--------9------|------------2-----|---5-----------|
C|----------|-------------|---------------|------------------|---------------|
G|----------|-------------|---------------|------------------|---------------|
C|---5------|-------------|---8-----------|--------3---------|-------5-------|




************************************

| h   Hammer-on
| p   Pull-off

************************************
Добавлено: 17.01.2018
Другие материалы по этой песне:
  • Аккорды и текст

Страница создана 04.01.2014
http://primanota.ru/deadmau5/somewhere-up-here-chords.htm
Привет, Гость.
Предлагаем пройти революционный курс по гитаре.
Подарок от PrimaNota.Ru, забирай!