PrimaNota.ru - самый крупный в мире бесплатный архив песенных текстов, аккордов, табулатур и нот


Deadmau5 - Moar Ghosts N Stuff (feat. Rob Swire) - текст песни, таба, видео

Регистрация Запомнить меня
Войти через:  Facebook Google Twitter Vk Yandex Mail.ru

Deadmau5 - Moar Ghosts N Stuff (feat. Rob Swire) - текст песни, таба, видео

Печатать
Просмотров: 135
Авторы музыки: Joel Zimmerman

Artist: DeadMau5
Song: Moar Ghosts n Stuff


Main Riff:

eb|------------10---------------------10--------|
Bb|---12-10-12-----10-11-------10-12------10-12-|
Gb|--------------11---------11----------11------|
Db|-9--------------------9----------------------|
Ab|---------------------------------------------|
Eb|---------------------------------------------|

Bridge:

eb|------|
Bb|------|
Gb|-11~--|
Db|------|
Ab|------|
Eb|------|

Breakdown:

eb|-------------------------|
Bb|-12----15----14----12-15-|
Gb|----11----11----11-------|
Db|-------------------------|
Ab|-------------------------|
Eb|-------------------------|

Solo:

eb|--------10-12-----------10---9--------------------|
Bb|-----10-------12--10-9----------12--10-12---10-12-|
Gb|-11-----------------------------------------------|
Db|--------------------------------------------------|
Ab|--------------------------------------------------|
Eb|--------------------------------------------------|

eb|-9--14h10------------10-12------------10---9-------------------|
Bb|----------12------10-------12--10-9----------12--10-12---10-12-|
Gb|-------------11------------------------------------------------|
Db|---------------------------------------------------------------|
Ab|---------------------------------------------------------------|
Eb|---------------------------------------------------------------|

eb|------------|
Bb|------10----|
Gb|-11---------|
Db|---------12-|
Ab|------------|
Eb|------------|

Chords backing solo:

   Bbm  Ab Gb  Eb

eb|-7----5--3--0--------|
Bb|-7----5--3--0--------|
Gb|-7----6--4--1--------|
Db|-9----7--5--2--------|
Ab|-9----7--5--2--------|
Eb|-7----5--3--0--------|

Please post any corrections or comments!
Добавлено: 25.04.2012
Другие материалы по этой песне:
  • Аккорды и текст

Страница создана 25.04.2012
http://primanota.ru/deadmau5/moar-ghosts-n-stuff-chords.htm
Привет, Гость.
Предлагаем пройти революционный курс по гитаре.
Подарок от PrimaNota.Ru, забирай!