PrimaNota.ru - самый крупный в мире бесплатный архив песенных текстов, аккордов, табулатур и нот


Deadmau5 - Luxuria - таба, видео

Регистрация Запомнить меня
Войти через:  Facebook Google Twitter Vk Yandex Mail.ru

Deadmau5 - Luxuria - таба, видео

Печатать
Просмотров: 135
-------------------------------------------------------------------------------
                             Luxuria - Deadmau5
-------------------------------------------------------------------------------
Tabbed by: Ari Taske
E-mail: arietaske@gmail.com

Tuning: Standard (E,A,D,G,B,e)
            t                  t                     t    t  t
e|------------------------10-8-12/13-----------3-5-6----8--------------------|
B|------------3---1-------6----------3---1---3-------10---10----3---1--------|
G|-4-5-7-5-10---2---4-4-5--------------2---4-------7----9----10---2---4------|
D|-5---8------3-----5-5---8----------3-----5-5-----8----8-------3-----5------|
A|---------------------------------------------------------------------------|
E|-3---6------1-----3-3---6----------1-----3-3-----6----6-------1-----3------|


************************************
| t   tap
| /   slide up
| \   slide down
| h   hammer-on
| p   pull-off
| ~   vibrato
| +   harmonic
| x   Mute note
| b   Bend
| pb  Pre-bend
| br  Bend release
| pbr Pre-bend release
| brb Bend release bend

************************************
Добавлено: 05.07.2015
Другие материалы по этой песне:
  • Аккорды и текст

Страница создана 05.07.2015
http://primanota.ru/deadmau5/luxuria-chords.htm
Привет, Гость.
Предлагаем пройти революционный курс по гитаре.
Подарок от PrimaNota.Ru, забирай!