PrimaNota.ru - самый крупный в мире бесплатный архив песенных текстов, аккордов, табулатур и нот


Deadlock - We All Shall Bleed - таба, видео

Регистрация Запомнить меня
Войти через:  Facebook Google Twitter Vk Yandex Mail.ru

Deadlock - We All Shall Bleed - таба, видео

Печатать
Просмотров: 196
Уроки эстрадного вокала в Санкт-Петербурге
Deadlock - We All Shall Bleed (outro)
Tabbed by pharaun (pharaun666pl@gmail.com)

So, this is first Deadlock's guitar tab in whole internet. (yeah!)
I'm in 90% sure, that this is correct way to play this lovely outro.
I figured it with my guitar tuned half step down 'cause I dunno what is
real tuning, then you can play it in another one, it's up to you.
I also have no idea about chords played on rythm guitar and I'll be
thankful for any sugestions. If you find any mistake - write a comment or
mail me, I'll fix it.
That's all people, hope you'll enjoy this one. ^_^

Tuning: Half step down (D#,A#,F#,C#,G#,D#)

e|--------------------------------------------------------------------|
b|---------------14-16-14---------------------------------------------|
g|-13~--13-14-16----------16-14-13-13-13~---------------13-14-16-16~--|
d|---------------------------------------------13-14-16---------------|
a|------------------------------------------16------------------------|
E|--------------------------------------------------------------------|

e|---------------------------------------------------------------|
b|---------------------------------------------------------------|
g|-14-13-13~---14-13-----------------------------------13-14-16--|
d|-------------------16-14-13-----------------13-14-16-----------|
a|----------------------------16-15-13-15-16~--------------------|
E|---------------------------------------------------------------|

e|-------14-16-17-19-17-16----21-19-17-16-17-16-14-16-14--------------|
b|-14-16-------------------16----------------------------17-16-17-16--|
g|--------------------------------------------------------------------|
d|--------------------------------------------------------------------|
a|--------------------------------------------------------------------|
E|--------------------------------------------------------------------|

e|-----------------------------------------------------------|
b|-14-16-17-17~---17---------------------------14~--14-16-14-|
g|-------------------18------------------14-16---------------|
d|----------------------19------------14---------------------|
a|-------------------------19------12------------------------|
E|----------------------------17~----------------------------|
     __3__                __3__
e|--|     |-|         |--|     |--------|
b|-13-14-16-| Repeat  |-13-14-16-17-17~-|
g|----------| it 10x, |-----------------|
d|----------| raise   |-----------------|
a|----------| tempo,  |-----------------|
E|----------| then... |-----------------|

e|----------------------------------------------------------|
b|------------------------------------------------13-14-14~-|
g|------------------------------------------13-14-----------|
d|----13-14-16-14-13---------------13-15-16-----------------|
a|-16----------------16---13-15-16--------------------------|
E|----------------------------------------------------------|

e|-21-...-21-21-17-19-16-17-14-16-12-----------------------------------|
b|-----------------------------------19-16-17-14-16-13-14-14-14-14-14~-|
g|---------------------------------------------------------------------|
d|---------------------------------------------------------------------|
a|---------------------------------------------------------------------|
E|---------------------------------------------------------------------|

e|-16------------------------------|
b|----17---------------------------|
g|-------18--------------18-20-20~-|
d|----------18--------16-----------|
a|-------------15--15--------------|
E|---------------------------------|

e|--------------------------------------------------|
b|-14-----------------------------------------------|
g|----16-14-13-14----14-14-13-14-14-13-14-14-14-14~-|
d|----------------14-16-16-14-16-16-14-16-16-16-16~-|
a|--------------------------------------------------|
E|--------------------------------------------------|

e|-12--------------------------12-14-16-16~-|
b|----14--------------------14--------------|
g|-------14--------------14-----------------|
d|----------14--------14--------------------|
a|-------------12--12-----------------------|
E|------------------------------------------|

e|-16-------------------------|
b|----------------------------|
g|----18----------------------|
d|-------18-------------------|
a|----------15-15-16-16~~~~~~-|
E|----------------------------|

And that's all. Please report me about any mistakes, if found.
Enjoy playing.

pharaun666pl

Band's website:
http://www.xdeadlockx.com/main.html

//Edit 1:
Tuning used by Deadlock is Standart C (2 steps down), so to play this outro you need 24 
guitar.
Добавлено: 03.06.2012
Другие материалы по этой песне:
  • Аккорды и текст

Страница создана 03.06.2012
http://primanota.ru/deadlock/we-all-shall-bleed-chords.htm
Привет, Гость.
Предлагаем пройти революционный курс по гитаре.
Подарок от PrimaNota.Ru, забирай!