PrimaNota.ru - самый крупный в мире бесплатный архив песенных текстов, аккордов, табулатур и нот


Deadlock - Code Of Honor - текст песни, таба, видео

Регистрация Запомнить меня
Войти через:  Facebook Google Twitter Vk Yandex Mail.ru

Deadlock - Code Of Honor - текст песни, таба, видео

Печатать
Просмотров: 313
Уроки эстрадного вокала в Санкт-Петербурге
Hi guys, sorry for the delay, this is the third tab that i upload, this is my solo's
version of the song CODE OF HONOR BY DEADLOCK,..PLEASE RATE THIS TABLATURE,...and i hope
you liked



code of honor by deadlock


Tunning:

1 :D              TAPPING: t
2 :A              SLIDE : /
3 :F               HAMMER ON: h
4 :D              PULL OFF:  p
5 :G
6 :C



Firts riff: okay guys this is the most difficult riff, if you want , you can use the
notes for making a more confortable riff.

|----------5-h10--t13--p10-p5---------5-h10--t15--p10-p5-----------|
|--------6---------------------6----6---------------------6--------|
|------7--------------------------7-------------------------7------|
|------------------------------------------------------------------|
|------------------------------------------------------------------|
|------------------------------------------------------------------|



|----------5-h10--t17--p10-p5---------5-h10--t18--p10-p5-------5-h10--t20-------|
|--------6---------------------6----6---------------------6---6-----------------|
|---------------------------------7-------------------------7-------------------|
|-------------------------------------------------------------------------------|
|-------------------------------------------------------------------------------|
|-------------------------------------------------------------------------------|



Second riff:

|--/20--20-20-20-18-18-18-18---17-17-17--15--17--15-h17-p15--------------|
|---------------------------------------------------------------18-------|
|------------------------------------------------------------------------|
|------------------------------------------------------------------------|
|------------------------------------------------------------------------|
|------------------------------------------------------------------------|



|--/18--18-18-18---15-15-15--17-17-17------------15-15-15---------------------------|
|----------------------------------------18-18-18-----------17-17-17--18-18-18------|
|-----------------------------------------------------------------------------------|
|-----------------------------------------------------------------------------------|
|-----------------------------------------------------------------------------------|
|-----------------------------------------------------------------------------------|



|--------------------------------------------------|
|---15-15-15--17-17-17-----13/--8------------------|
|--------------------------------------------------|
|--------------------------------------------------|
|--------------------------------------------------|
|--------------------------------------------------|
|--------------------------------------------------|


Third riff: this riff is really simple if you know to play the first.

|--13-------------13--13-------------13--13-------------13-13--------------13---------|
|-----15-------15--------15------15---------15-------15-------15-------15-------------|
|--------15-15-------------15-15---------------15-15-------------15-15----------------|
|-------------------------------------------------------------------------------------|
|-------------------------------------------------------------------------------------|
|-------------------------------------------------------------------------------------|



|--15-------------15--15------------15--15--------------15-15--------------15---------|
|-----17-------17--------17------17---------17-------17-------17-------17-------------|
|--------17-17-------------17-17---------------17-17-------------17-17----------------|
|-------------------------------------------------------------------------------------|
|-------------------------------------------------------------------------------------|
|-------------------------------------------------------------------------------------|



last riff:

|--12-----------------------------------------------17-h18-p17--20--17h-18/-15-------|
|-----13---------------------------13/15----17--18-----------------------------------|
|---------12--------------------12---------------------------------------------------|
|-------------14------------14-------------------------------------------------------|
|-----------------15-----15----------------------------------------------------------|
|------------------------------------------------------------------------------------|



|--15-h17-15---------------------------------------------|
|-------------18----17-h18-p17-17-h18-p17----15----------|
|--------------------------------------------------------|
|--------------------------------------------------------|
|--------------------------------------------------------|
|--------------------------------------------------------|



well that's all hope you practice and if you have suggestions comment..........RATE THE 
TABB PLEASEE
Добавлено: 23.07.2013
Другие материалы по этой песне:
  • Аккорды и текст

Страница создана 09.06.2013
http://primanota.ru/deadlock/code-of-honor-chords.htm
Привет, Гость.
Предлагаем пройти революционный курс по гитаре.
Подарок от PrimaNota.Ru, забирай!