PrimaNota.ru - самый крупный в мире бесплатный архив песенных текстов, аккордов, табулатур и нот


Deadguy - Doom Patrol - таба, видео

Регистрация Запомнить меня
Войти через:  Facebook Google Twitter Vk Yandex Mail.ru

Deadguy - Doom Patrol - таба, видео

Печатать
Просмотров: 85
Deadguy
"Doom Patrol"
Fixation on a Co-worker
(Victory)
http://en.wikipedia.org/wiki/Deadguy

Standard tuning

Verse

left

|---------------------------------------------|
|-------0-------------------------------------|
|-------0--------------7-7-7-7----------------|
|----------------------6-6-6-6----------------|
|----------------------5-5-5-5----------------|
|-3h4------4-4-4-3-2-1------------------------|
pm         . . . . . .

|----------------------------------------------|
|---------------------------------------[5]----|
|---------------------------------------[5]----|
|---------------------------------------[5]-x4-|
|-5-----5------5-----5-----5---5----4-0--------|
|---4-4---4-4----4-4---4-4---4---4--4-0--------|
pm  . .   . .    . .   . .   .   .  . .

Chorus

(sometimes hit b string harmonic on the third fret)
|-----------------------------------------------|
|-------------------------------------[5]-------|
|-----[3]----------------[3]----------[5]-------|
|---------------------------------6-6-[5]-------|
|---------x3-----[3]---------x4---4-4-----x4----|
|-3p0--------3p0-----3p0----------4-4-----------|
pm                                . .


Breakdown
                                 1.    2.
|-------------------------------------|-----------|
|-------------------------------------|-----------|
|-----8b---5-------8---8---8---8---8--|-8-11-8-11-|
|---2-x----5-------7---7---7---7---7--|-7-10-7-10-|
|-2-2-6b-3-3-3---6-6-6-6-6-6-6-6-6-6--|-6-9--6-9--|
|-0-0----3-3-3/8~---------------------|-----------|
pm.      .       .   .   .   .   .

|-------------------------------------|-----------|
|-------------------------------------|-----------|
|-----8----5-------4---4---4---4---4--|-4-7-4-7---|
|-----x----5-------3---3---3---3---3--|-3-6-3-6---|
|2222-6b-3-3-3---2-2-2-2-2-2-2-2-2-2--|-2-5-2-5---|
|0000----3-3-3/8~---------------------|-----------|
pm..     .       .   .   .   .   .

|---------------|
|---------------|
|---------------|
|-2-------------|
|-2-------------|
|-0-------------|

right (Chris was known to make a lot of random noise, so keep that in mind)

|-------0--------------------------------------|
|-------0--------------------------------------|
|-------0--------------------------------------|
|------[5]-------------------------------------|(random pick scrapes and notes)
|-5--------5---5-5-3-2-------------------------|
|-4--------4-----------------------------------|
pm             . . . .

|----------------------------------------------|
|---------------------------------------[5]----|
|---------------------------------------[5]----|
|---------------------------------------[5]-x4-|
|-5-----5------5-----5-----5---5----4-0--------|
|---4-4---4-4----4-4---4-4---4---4--4-0--------|
pm  . .   . .    . .   . .   .   .  . .

Chorus

(sometimes hit randon harmonics)
|-----------------------------------------------|
|-------------------------------------[5]-------|
|-----[3]----------------[3]----------[5]-------|
|---------------------------------6-6-[5]-------|
|---------x3-----[3]---------x4---4-4-----x4----|
|-3p0--------3p0-----3p0----------4-4-----------|
pm                                . .


Breakdown

|-------------------------------------------------|
|-------------------------------------------------|
|-----8b---5------------8b---5--------------------|
|---2-x----5------------x----5--------------------|
|-2-2-6b-3-3-3----------6b-3-3-3------------------|
|-0-0----3-3-3/8~--0000----3-3-3/8----------------|
pm. .              ....

|----------------|
|-----(noise)----|
|----------------|
|-2--------------|
|-2--------------|
|-0--------------|
Добавлено: 13.04.2012
Другие материалы по этой песне:
  • Аккорды и текст

Страница создана 13.04.2012
http://primanota.ru/deadguy/doom-patrol-chords.htm
Привет, Гость.
Предлагаем пройти революционный курс по гитаре.
Подарок от PrimaNota.Ru, забирай!