PrimaNota.ru - самый крупный в мире бесплатный архив песенных текстов, аккордов, табулатур и нот


Deadeye Dick - Paralyze Me - бас-таба, видео

Регистрация Запомнить меня
Войти через:  Facebook Google Twitter Vk Yandex Mail.ru

Deadeye Dick - Paralyze Me - бас-таба, видео

Печатать
Просмотров: 88
Уроки эстрадного вокала в Санкт-Петербурге
Авторы музыки: Caleb Guillotte
Авторы текста: Caleb Guillotte
Verse 1 -

G|-------------------------------------------|
D|-------------------------------------------|
A|-------------------14/5555-7777-9999-7777--|
E|-------------------------------------------|

G|-----------------------|
D|-----------------------|
A|--5555-7777-9999-7777--| x6
E|-----------------------|


Chorus

G|---------------|
D|---------------|
A|-----22-33-55--| 
E|--33-----------| x2

G|-----------------------|
D|-----------------------|
A|--5555-7777-9999-7777--| 
E|-----------------------|

G|---------------------------------|
D|---------------------------------|
A|-------4570------4570------5/10--| 
E|--5555------5555-------3~--------| 


Verse 2

G|-----------------------|
D|-----------------------|
A|--5555-7777-9999-7777--| x8
E|-----------------------|


Chorus

G|---------------|
D|---------------|
A|-----22-33-55--| 
E|--33-----------| x2

G|-----------------------|
D|-----------------------|
A|--5555-7777-9999-7777--| 
E|-----------------------|

G|---------------------------------|
D|---------------------------7/12--|
A|-------4570------4570------------| 
E|--5555------5555-------3~--------| 


Verse 3

G|-----------------------|
D|-----------------------|
A|--5555-7777-9999-7777--| x4
E|-----------------------|

Chorus

G|---------------|
D|---------------|
A|-----22-33-55--| 
E|--33-----------| x2

G|-----------------------|
D|-----------------------|
A|--5555-7777-9999-7777--| 
E|-----------------------|

G|---------------------------------|
D|---------------------------7/12--|
A|-------4570------4570------------| 
E|--5555------5555-------3~--------| 


Post-Chorus

G|-----------------------|
D|-----------------------|
A|--5555-7777-9999-7777--| x2
E|-----------------------|


Bridge

G|-------------|
D|-------------|
A|-----5-7-----| 
E|--5-0---5-5--| x4

G|-----------------7-------------|
D|-------457-7h9-5--5------------|
A|-----57------------3-2-1-0-----| 
E|--50----------------------4-3--| x2

G|-------------------------------------------|
D|-------------------------------------------|
A|--5555-7777-9999---------------------5555--|
E|-----------------3333-5555-7777-8888-------|

Ending

G|--------|
D|--------|
A|--------|
E|--3570--| Until the end



Добавлено: 14.06.2015
Другие материалы по этой песне:
  • Аккорды и текст

Страница создана 14.06.2015
http://primanota.ru/deadeye-dick/paralyze-me-chords.htm
Привет, Гость.
Предлагаем пройти революционный курс по гитаре.
Подарок от PrimaNota.Ru, забирай!