PrimaNota.ru - самый крупный в мире бесплатный архив песенных текстов, аккордов, табулатур и нот


Dead Weather - Three Dollar Hat - таба, бас-таба, видео

Регистрация Запомнить меня
Войти через:  Facebook Google Twitter Vk Yandex Mail.ru

Dead Weather - Three Dollar Hat - таба, бас-таба, видео

Печатать
Просмотров: 110
-------------------------------------------------------------------------------
                   Three Dollar Hat - The Dead Weather
-------------------------------------------------------------------------------
Tabbed by: noisedzn
E-mail:

Tuning: Standard (EADGBe)


      x4           x29
e|-----------|--------------|
B|-----------|--------------|
G|-----------|--------------|
D|-----------|--------------|
A|-----7-----|-------7------|
E|---5---5-6-|---0-5---5-6--|

       x6
e|----------|---------------|
B|----------|---------------|
G|---7-7-7--|---------------| x6
D|---7-7-7--|--7-5-3-5-3-2--|
A|---5-5-5--|---------------|
E|----------|---------------|

      x7      Do this the eight time
e|----------|-----------------------|
B|----------|-----------------------|
G|----------|-----------------------|
D|---8-8-8--|---8-8-7~--------------|
A|---8-8-8--|---8-8-7~--------------|
E|---6-6-6--|---6-6-5~--------------|

The do the beginning riff again for a couple of times until the end, listen to the song
because is not in the same order at the beginning but they are the same. if you want me
to tab it just tell me.

That's all hope this help you, any correction is welcome.


************************************

| /   slide up
| \   slide down
| h   hammer-on
| p   pull-off
| ~   vibrato
| +   harmonic
| x   Mute note
| b   Bend
| pb  Pre-bend
| br  Bend release
| pbr Pre-bend release
| brb Bend release bend

************************************
Добавлено: 06.04.2016
Другие материалы по этой песне:
  • Аккорды и текст

Страница создана 06.04.2016
http://primanota.ru/dead-weather/three-dollar-hat-chords.htm
Привет, Гость.
Предлагаем пройти революционный курс по гитаре.
Подарок от PrimaNota.Ru, забирай!