PrimaNota.ru - самый крупный в мире бесплатный архив песенных текстов, аккордов, табулатур и нот


Dead Weather - No Horse - текст песни, таба, бас-таба, видео

Регистрация Запомнить меня
Войти через:  Facebook Google Twitter Vk Yandex Mail.ru

Dead Weather - No Horse - текст песни, таба, бас-таба, видео

Печатать
Просмотров: 265
Уроки эстрадного вокала в Санкт-Петербурге
its my first tab so please be nice.

----------------------------------------------|
----------------------------------------------|
-------------------9-9------------------9-9---|
-8-8-8-8-8-8-8b--9-8-8-9-9--8-8-8-8b--9-8-8-9-|
-----------------9-7-7-9-9------------9-7-7-9-|
-----------------7-----7-7------------7-----7-|


----------------------------------------------|
----------------------------------------------|
-------------------9-9------------------9-9---|
-8-8-8-8-8-8-8b--9-8-8-9-9--8-8-8-8b--9-8-8-9-|
-----------------9-7-7-9-9------------9-7-7-9-|
-----------------7-----7-7------------7-----7-|

-------------------------|
-------------------------|
-------------------------|
-------------------------|
---8---6-------8---------|
-6---6---6-8-9---6-6-6-6-|

b = bend note
Добавлено: 12.07.2012
Другие материалы по этой песне:
  • Аккорды и текст

Страница создана 23.04.2012
http://primanota.ru/dead-weather/no-horse-chords.htm
Привет, Гость.
Предлагаем пройти революционный курс по гитаре.
Подарок от PrimaNota.Ru, забирай!